Rem - Try Not To Breathe Chords & Tabs

 

Try Not To Breathe Chords & Tabs

Rem Chords & Tabs

Version: 1 Type: Bass Tab 0 ratings
1 star 2 stars 3 stars 4 stars 5 stars
comments

Try Not To Breathe Bass Tab

   
Date: Thu, 26 Oct 1995 23:16:37 -0600 (MDT)
TRY NOT TO BREATHE

From: Norris Brady Thomas (Brady.Norris@Colorado.EDU)


Verse

  D   Am  C       G   Dsus4 Am  C     G

G--------------------------------------------
D-0---------------------0--------------------
A---0--0-2-3-2-0-2---2----0---0-2-3-2-0------
E------------------3---------------------3---

Chorus

 Am           C                G      D    G      D   
  h  h  h  h    h                  h    h      h       
G-------------0-02-0-0-0-2-2---0-0-02------0-0-02--------------------------
D-02-02-02-02----------------0--------0-02--------0-0----------------------
A--------------------------------------------------------------------------
E--------------------------------------------------------------------------
[ Tab from: http://www.guitartabs.cc/tabs/r/rem/try_not_to_breathe_btab.html ]
                                     lend of first chorus
  Am            G      D    G      D l Am            C
                    h    h      h    l                 h        h
G---4-4---4-2-4-0-0-02------0-0-02---l---4-4---4-2-4-0-02-0-0-0-02-2-2------
D-2-----2--------------0-02--------0-l-2-----2------------------------------
A------------------------------------l--------------------------------------
E------------------------------------l--------------------------------------

Bridge

  Em          Am          Em          Am        C 
                                                      s             
G---------------------------------------------------------------------------
D-2-2-2-2-------------5-4-2-2-2-2-----------------5---5/7-7-7---------------
A---------3-2-0-0-0-0-------------3-2-0-0-0-0-2-3---3-----------------------
E---------------------------------------------------------------------------

Coda

  Am            G      D    G      D Am        C                G
                    h    h      h                        h     
G---4-4---4-2-4-0-0-02------0-0-02-----4---4--------------------------------
D-2-----2--------------0-02--------0-2---2---2---7-5-5-5-57-5---------------
A----------------------------------------------3--------------5-------------
E---------------------------------------------------------------3-----------



Comments