Rem - Talk About The Passion (intro-riff) Chords & Tabs

 

Talk About The Passion (intro-riff) Chords & Tabs

Rem Chords & Tabs

Version: 1 Type: Chords 0 ratings
1 star 2 stars 3 stars 4 stars 5 stars
comments

Talk About The Passion (intro-riff) Chords

   
#----------------------------------PLEASE NOTE---------------------------------#
#This file is the author's own work and represents their interpretation of the #
#song. You may only use this file for private study, scholarship, or research. #
#------------------------------------------------------------------------------#

R.E.M: Talk About The Passion
       ======================

[ Tab from: http://www.guitartabs.cc/tabs/r/rem/talk_about_the_passion_intro_riff_crd.html ]
       Riff :    B(2)  -3-3-------3-3--------
                 G(3)  -2-2-------2-2---------   C   Asus4
                 D(4): -0-0-0-2-4-0-0-0-2-4-0---    
       
       
                     3                   3
                   / / /    /    /   | / / /   /     /
                    A       G    A   |  A      G     A
       
----------------------------------------------------------------------------------------------------
       
       
       Also, someone asked about the intro tab for Talk About The Passion :
       
           (D)*************************    (Cmaj7)****   (A)**********
       E-------------- ! ----------------! ---------! ------------------!
       B---------------! ----------------! ---3-----! ----232-----------!
       G--2--2--2-2--2-! -2--2--2-2-2-2--! --0-0----! ---2---2----------!
       D--0--0--0-2--4-! -0--0--0-2-4-0--! -2---2---! --2-----2---------!
       A---------------! ----------------! 3-----3--! -0-------0--------!
       E---------------! ----------------! ---------! ------------------!
       
       
       I also play this song by making a D without any finger on the high
       E string.  Here's how it begins :
       
       -----------------------------------------------------------------
       ------------------------3---------------0------------------------
       --------------------------2---------2-----2---------2------------
       0-0-0-2-4--0-0-0-2-4-0------0-----0---------2-----2--------------
       2-2-2------2-2-2--------------3-1-------------3-2----------------
       -----------------------------------------------------------------
       
       Then this is repeated for the chorus
       
       --------------------3-3-3-3-3-3-3-3------------------------------
       0-0-0-0---0-0-0-0------------------------------------------------
       2-2-2-2---2-2-2-2------------------------------------------------
       2-2-2-2---2-2-2-2------------------------------------------------
       2-2-0-2---2-2-0-2---3-3-3-3-3-3-3-3------------------------------
       --------------------3-3-3-3-2-2-2-2------------------------------
       
       and this part comes after the chorus
       
       -----------------------------------------------------------------
       -------------------------0-0-0-0-0-------------------------------
       -------------------------2-2-2-2-2-------------------------------
       2-2-2-2--2-2-2-2--2-2-2--2-2-2-2-2-------------------------------
       3-3-3-3--3-3-3-3--3-3-3--2-2-2-0-2-------------------------------
       2-2-3-5--2-2-3-5--3-3-2------------------------------------------
       

       The only thing that I have figured out is the intro/verse section to
       "Talk About the Passion".  For what it's worth, here it is :
       
       1:
       2:                  1 0        1 0
       3:  2 2 2 2 2 2 2 2 2 2 2     0     0       0     0
       4:  0 0 0 2 4 0 0 0 2 4 0   2       0   0        0
       5:               3       2
       6:
       
       Make sure you try this, because I have a hard time remembering what I
       play without a guitar in my hands.  The second part (after the double
       notes) may be off a little bit.  They are based on the C and G
       chords, though.
       
       
Comments