Rem - Orange Crush Chords & Tabs

 

Orange Crush Chords & Tabs

Rem Chords & Tabs

Version: 1 Type: Tab 0 ratings
1 star 2 stars 3 stars 4 stars 5 stars
comments

Orange Crush Tab

=============================================================================
			     ORANGE CRUSH - R.E.M
=============================================================================
Tabbed by: Douglas Baird
E-mail: alistair_baird@lineone.net

This is only my first Tab so I'm sorry if there is any mistakes.
I haven't seen any good versions of this song so here is my version:


                       Most of the song goes like this
   e[----0----0---------0-----------------------------0----------]   
   B[--------------0---------3----0--------------3---------3-----]      
   G[----------------------------------0----2--------------------]
[ Tab from: http://www.guitartabs.cc/tabs/r/rem/orange_crush_tab.html ]
                
                      The middle section goes like this
   E[------------12-----------------------------0-----------]    
   B[-----12------------------3-----0-----------------3-----]
   G[-------------------0-----------------2-----------------] x2


                      Then you go back to the first part


         At the "na na" parts you can play like this if you like
    E[-----0-----------------------]
    B[-----------4-----2-----4-----]
    G[-----------------------------]  
           na... na... na... na...


Just like Peter Buck I've listened to this song over threehundred
times and I still don't know what its about.
Comments