Rem - Monty Got A Raw Deal Chords & Tabs

 

Monty Got A Raw Deal Chords & Tabs

Rem Chords & Tabs

Version: 1 Type: Tab 0 ratings
1 star 2 stars 3 stars 4 stars 5 stars
comments

Monty Got A Raw Deal Tab

R.E.M.
Monty got a raw deal
Automatic for the people
Tabbed by Thayer Hendrickson  
			(thayer_hendrickson@yahoo.com)

This is a great song and fun to play (listen for timing)
email me corrections


Intro and verses

e--4-4----4/6/4------2------------
b--4--4---4/6/4--4-----0---2p0-0--
g--4---4--4/6/4----4-----4-----4--
d---------------------------------
a---------------------------------
E---------------------------------
		
e--4-4---4/6/4------2-----2-------
b--4--4--4/6/4--4-----0-----2---0-
g--4---4-4/6/4----4-----4-----4-4-
d---------------------------------
a---------------------------------
E---------------------------------
[ Tab from: http://www.guitartabs.cc/tabs/r/rem/monty_got_a_raw_deal_tab.html ]
e--4-4----4/6/4------2------------
b--4--4---4/6/4--4-----0---0---0--
g--4---4--4/6/4----4-----4---4-4--
d---------------------------------
a---------------------------------
E---------------------------------

e--------------------------------
b--4-----4-------4----------4----
g------3---1---3---1----1-----1--
d----4-------3-------1----1------
a--------------------------------
E--------------------------------

		Monty, this seems strange to me...    etc.


bridge

e--11----11--14----------------
b-----14--------14-11-9-7-7h9--
g------------------------------
d------------------------------
a------------------------------
E------------------------------
		
		you don’t owe me anything...





chorus

e---7---9---4-----
b---7---9---4-----
g---7---9---4-----
d-----------------
a-----------------
E-----------------

		don’t waste your breath...

have fun with it
Comments