Rem - Make It All Okay Chords & Tabs

 

Make It All Okay Chords & Tabs

Rem Chords & Tabs

Version: 1 Type: Bass Tab 0 ratings
1 star 2 stars 3 stars 4 stars 5 stars
comments

Make It All Okay Bass Tab

Song: Make It All Okay
Artist: REM
Album: Around The Sun
Tabbed By: MrOoze (Mrooze@yahoo.com)

Good song + Lots o' fun to play.
Once you've got the Rhythm down, the rest is easy.
Mail me if you have any requests for REM bass tabs.
As always, comments and corrections welcome.

Tuning is Standard
G|--------------------------------|--------------------------------|
D|----------rest------------------|------------rest----------------|
A|--------------------------------|--------------------------------|
E|--------------------------------|--------------------------------|

"You made your ultimatum..."
G|--------2-----------------------|--------------------------------|
D|3---------------0-----------0---|--------------------------------|
A|------------------------3----30-|----------------3-----3-----3-2-|
E|--------------------------------|3---3-3-------------------------|

G|--------------------------------|--------------------------------|
D|----------------0-------0-0-----|--------------2-0-------0-0-----|
A|0-------0-0---0-------0---------|0-------0-0-----------0-------3h5
E|------0-----------------------0h3------0-------------------------|

G|--------------------------------|--------------------------------|
D|2-------2-2---2-----------------|2-------2-2---2-----------------|
A|------2---------3-------3-3---3h5------2---------3-------3-3---3h5
E|----------------------3---------|----------------------3---------|

G|--------------------------------|----------------|
D|2-------2-2---2-0---0-----------|----------------|
A|------2-----------------3---3---|1---1---1-1---3-|
E|--------------------------------|----------------|

"When I saw you at..."
G|--------2-----------------------|--------------------------------|
D|3---------------0-----------0---|--------------------------------|
A|------------------------3----30-|----------------3-----3-------3-|
E|--------------------------------|3-----3-------------------------|

G|--------2-----------------------|--------------------------------|
D|3---------------0-----------0---|--------------------------------|
A|------------------------3----30-|----------------3-----3-----3-2-|
E|--------------------------------|3-----3-------3-----------------|
[ Tab from: http://www.guitartabs.cc/tabs/r/rem/make_it_all_okay_btab.html ]
G|--------------------------------|--------------------------------|
D|----------------0-------0-0-----|--------------2-0-------0-0-----|
A|0-------0-0---0-------0---------|0-------0-0-----------0-------3h5
E|------0-----------------------0h3------0-------------------------|

G|--------------------------------|--------------------------------|
D|2-------2-2---2-----------------|2-------2-2---2-----------------|
A|------2---------3-------3-3---3h5------2---------3-------3-3---3h5
E|----------------------3---------|----------------------3---------|

G|--------------------------------|--------------------------------|
D|2-------2-2---2-0---0-----------|--------------------------------|
A|------2-----------------3---3---|1---1---1-1-----1---1---1-1---1-|
E|--------------------------------|--------------------------------|

"Didn't you believe that..."
G|--------------------------------|--------------------------------|
D|3~--------rest------------------|--------------rest--------------|
A|--------------------------------|--------------------------------|
E|--------------------------------|--------------------------------|

G|--------2-----------------------|--------------------------------|
D|3---------------0-----------0---|--------------------------------|
A|------------------------3----30-|----------------3-----------3-2-|
E|--------------------------------|3-----3-------3-----------------|

G|--------------------------------|--------------------------------|
D|----------------0-------0-0-----|--------------2-0-------0-0-----|
A|0-------0-0---0-------0---------|0-------0-0-----------0-------3h5
E|------0-----------------------0h3------0-------------------------|

G|--------------------------------|--------------------------------|
D|2-------2-2---2-----------------|2-------2-2---2-----------------|
A|------2---------3-------3-3---3h5------2---------3-------3-3---3h5
E|----------------------3---------|----------------------3---------|

G|--------------------------------|--------------------------------|
D|2-------2-2---2-----------------|2-------2-2---2-----------------|
A|------2---------3-------3-3---3h5------2---------3-------3-3---3h5
E|----------------------3---------|----------------------3---------|

G|--------------------------------|--------------------------------|
D|2-------2-2---2-0---0-----------|--------------------------------|
A|------2-----------------3---3---|1---1---1-1-----1---1---1-1-----|
E|--------------------------------|--------------1---------------1-|

G|--------------------------------||
D|----------------3~--------------||
A|1---1---1-1---3-----------------||
E|--------------------------------||
Comments