Rem - Losing My Religion Chords & Tabs

 

Losing My Religion Chords & Tabs

Rem Chords & Tabs

Version: 1 Type: Bass Tab 1 rating
1 star 2 stars 3 stars 4 stars 5 stars
comments

Losing My Religion Bass Tab

   
Losing My Religion

From: Weasel (ara103@mailer.york.ac.uk)

It's not completely right, but it's as near as I can work out.

NB - if I've put a note in brackets, it means that I think you alternate 
between it and the note before. It just saves space.

OPENING BIT (F-G-Am)

   F       G Am        F                G Am G

G ------------------------------------------------
D -----------------0-2-3-3-2-3-3-3-3-2-3-3-2-3-2-0
A -----------0-2-3--------------------------------
E -1-(0)-1-3--------------------------------------
[ Tab from: http://www.guitartabs.cc/tabs/r/rem/losing_my_religion_btab.html ]
VERSE BIT (Am-Em):

       Am       Em

G --------------------
D --------------2-----
A -----0----0-2-------
E -0-3----3-------3-0-

(Am-Em-Dm-G):

       Am       Em      Dm     G

G -------------------------------
D --------------2---2-2-0--3-2-0-
A -----0----0-2------------------
E -0-3----3-------3--------------

BREAK:

G -----------------
D -----------------
A -0---------0---0-
E ---3-1-3-3---3---

OUTRO:

G -----------------------------
D -----------------------------
A ---0----0----0----0----------
E -3----3----3----3----0-3-4-5-

Comments