Rem - I Took Your Name Chords & Tabs

 

I Took Your Name Chords & Tabs

Rem Chords & Tabs

Version: 1 Type: Bass Tab 0 ratings
1 star 2 stars 3 stars 4 stars 5 stars
comments

I Took Your Name Bass Tab

i'm not sure it this gets sent to the same place, but here is a corrected
version of rem's i took your name
	unknown@bellatlantic.net
I Took Your Name (corrected version) off Monster
originally from: Acetone@aol.com
corrected by:unknown@bellatlantic.net
if there are any errors, please mail me directly...
...i'm pretty sure that this is pretty accurate... 

REM's I Took Your Name

note-each hyphen represents a half beat (eighth note/rest)

intro

1 &2&3&4&
- -------|---0----|- -------|--------|
- -------|-----0-0|- -------|--------|
5/77-7-7-|7-------|5/77-7-7-|7----7-7|
- -------|--------|- -------|--------|

verse seg1

1 &2&3&4&
- -------|---0----|- -------|--20----|
- -------|-----0-0|- -------|-----0-0| 
5/77-7-7-|7-------|5/77-7-7-|7-------| 
- -------|--------|- -------|--------|

verse seg2
[ Tab from: http://www.guitartabs.cc/tabs/r/rem/i_took_your_name_btab.html ]
1 &2&3&4&
- -------|---0----|- -------|---2--0-|
- -------|-----0-0|- -------|-------0|
5/77-7-7-|7-------|5/77-7-7-|7-------|
- -------|--------|- -------|--------|


lead up

--------|--------|
--------|--------|
3-3--333|0--0-333|
--------|--------|

chorus

- -------|---2--0-|--------|--------|- -------|--------|
- -------|--------|--------|--------|- -------|--------|
5/77-7-7-|7------0|3-3--333|0--0-333|5/77-7-7-|7--7--7-|
- -------|--------|--------|--------|---------|--------|

solo /*corrections would be appreciated for rhythm or notes*/

- ---- ---|--------|- -------|--------|
- ---- ---|--------|- -------|--------|
7/99-9/7--|5--4--3-|5/77-7-7-|7-5-4---|
- ---- ---|--------|- -------|--------|

ending

- -------|---2--0-|--------|--------|
- -------|-------0|--------|--------|
5/77-7-7-|7-------|3-3--333|0--0-333|
- -------|--------|--------|--------|

the end

- -------|
- -------|
5/77-----|
- -------|

it goes like this:
intro, vs1 *3,vs2, leadup, chorus, vs1 *3, vs2,leadup, chorus, 
solo *2, leadup, chorus, vs1 *3,vs2, leadup *3, leadup, leadup,
ending *4, the end

Comments