Rem - Everybody Hurts (riff) Chords & Tabs

 

Everybody Hurts (riff) Chords & Tabs

Rem Chords & Tabs

Version: 1 Type: Tab 0 ratings
1 star 2 stars 3 stars 4 stars 5 stars
comments

Everybody Hurts (riff) Tab

   
REM - everybody hurts.



                D                                                                      G                                
[ Tab from: http://www.guitartabs.cc/tabs/r/rem/everybody_hurts_riff_tab.html ]
e--------------2--------------------- 2-----------------------------------3---------------------------3----------
b----------3-------3------------3----------3-------------------------3-------3------------------3-----3------- 
g-------2-------------2-----2-------------------2---------------0------------------0---------0-----------------
d---0-------------------- 0--------------------------------------------------------------------------------------- 
a-------------------------------------------------------------------------------------------------------------------
e------------------------------------------------------------3-------------------------------3---------------------
  

repeat twice then go on to ……….

e------------------------------------------
b------------------------------------------
g------------------------------------------
d------------------------------------------
a------------------------------------------     Then strum E minor a couple of times then A .
e--------3-----2------0------------------     After that, go back to the start!!


Tabbed by drinky! 
Comments