Rem - Everybody Hurts Chords & Tabs

 

Everybody Hurts Chords & Tabs

Rem Chords & Tabs

Version: 1 Type: Chords 0 ratings
1 star 2 stars 3 stars 4 stars 5 stars
comments

Everybody Hurts Chords

   
#----------------------------------PLEASE NOTE---------------------------------#
#This file is the author's own work and represents their interpretation of the #
#song. You may only use this file for private study, scholarship, or research. #
#------------------------------------------------------------------------------##
#

# For the latest collection of R.E.M. chords & tab, go to
# http://www.uark.edu/~cbray/rem/
#
# If you have any corrections or additions to this file, please email them
# to cbray@comp.uark.edu
#

EVERYBODY HURTS


INTRO:  D   G   D   G     D
---------------------------
                
                    G               D                            G     D

Picking patten for the chords:
     D                         G
E----------2-----------2-------------3-----------3----------------------------
B--------3---3-------3---3---------3---3-------3---3--------------------------
G------2-------2---2-------2-----0-------0---0--------------------------------
D----0-----------0------------------------------------------------------------
A-----------------------------------------------------------------------------
E------------------------------3-----------3----------------------------------
[ Tab from: http://www.guitartabs.cc/tabs/r/rem/everybody_hurts_crd.html ]
(Note: the chords below may be picked or strummed)
     A                         E
E----------0-----------0-------------0-----------0----------------------------
B--------2---2-------2---2---------0---0-------0---0--------------------------
G------2-------2---2-------2-----1-------1---1--------------------------------
D----2-----------2------------------------------------------------------------
A------------------------------2-----------2----------------------------------
E-----------------------------------------------------------------------------


#----------------------------------PLEASE NOTE---------------------------------#
#This file is the author's own work and represents their interpretation of the #
#song. You may only use this file for private study, scholarship, or research. #
#------------------------------------------------------------------------------#

PICKING PATTERN:
---------------

     D                           G
e-|--------2-----------2------|--------3-----------3------|
B-|------3---3-------3---3----|------3---3-------3---3----|
G-|----2-------2---2-------2--|----0-------0---0-------0--|
D-|--0-----------0------------|---------------------------|
A-|---------------------------|---------------------------|
E-|---------------------------|--3-----------3------------|

------
INTRO:  D   G   D   G
------


     G          [walk-down]
e-|--------3------------------|
B-|------3---3-------0-----0--|
G-|----0-------0---0-----0----|
D-|---------------------------|
A-|---------------------------|
E-|--3-----------3-----2------|
   hang on


PICKING PATTERN:
---------------

     Em                          A
e-|--------0-----------0------|----------0-----------0-----|
B-|------0---0-------0---0----|--------2--2--------2---2---|
G-|----0-------0---0-------0--|------2------2----2-------2-|
D-|---------------------------|----------------------------|
A-|---------------------------|--0-----------0-------------|
E-|--0-----------0------------|----------------------------|

CHORDS:

D   x x 0 2 3 2
G   3 2 0 0 3 3
Em  x 2 2 0 0 0
A   x 0 2 2 2 0
F#  2 4 4 3 2 2
Bm  x 2 4 4 3 2
C   x 3 2 0 1 0
Am  x 0 2 2 1 0

Comments