Rem - Drive Chords & Tabs

 

Drive Chords & Tabs

Rem Chords & Tabs

Version: 1 Type: Tab 0 ratings
1 star 2 stars 3 stars 4 stars 5 stars
comments

Drive Tab

   
#----------------------------------PLEASE NOTE---------------------------------#
#This file is the author's own work and represents their interpretation of the #
#song. You may only use this file for private study, scholarship, or research. #
#------------------------------------------------------------------------------#
#

Date: Fri, 12 Dec 1997 21:28:32 +0100 (MET)
From: Tim Fooy 
To: guitar@olga.net
Subject: TAB: Drive by R.E.M.


Tablature of Drive
Group: R.E.M.

this is what i made out of it
i think it sounds good (enough)

A Dm in the verses can mean that you have to play these intro-lines


    Dm
E---------1------1------1---1----------1------1------1---1------------
B------------3------3-----------3---------3------3-----------3--------
G-------2-----------------0----------2-----------------0--------------
D----0---------0------0-------3---0---------0------0-------3----------
A---------------------------------------------------------------------
E---------------------------------------------------------------------


E---------1------1------1---1----------1------1-----------------------
B------------3------3-----------3---------3------3---3---3---3--------
G-------2-----------------0----------2---------------0/2-0---0--------
D----0---------0------0-------3---0---------0------0-------3----------
A---------------------------------------------------------------------
E---------------------------------------------------------------------

          Dm     G       Dm
          Hey kids, shake a leg.     
E-5--------------------------------------------------------------5-------
B---8-6------------------------------------------------------------8-6---
G-------7-5-------------------5p7----5-----------------------------------
D---------5--------------------------5-----------------------------------
A------------------------------------------------------------------------
E------------------------------------------------------------------------
 


E---------------------------------------------------------------5--------
B-----------------------------6-----------------------------------8-6----
G-------7-------------------------------7-----------------------------7--
D-------7-------------------------------7--------------------------------
A------------------------------------------------------------------------
E------------------------------------------------------------------------

  Dm
  Ollie,   ollie,   ollie, ollie, ollie,      
E------------------------------------------------------------------------
B------------------------------------------------------------------------
G-5---------------------------------5p7------5---------------------------
D-5------------------------------------------5---------------------------
A------------------------------------------------------------------------
E------------------------------------------------------------------------

          Dm                             Dm
      E-5------------------------------5---------------------------------------
B---8-6-------------6--------------8-6-----------------------------------
G-------7------------------7-----------7-5-------------------5p7---------
D-------7------------------7-------------5-------------------------------
A------------------------------------------------------------------------
E------------------------------------------------------------------------
[ Tab from: http://www.guitartabs.cc/tabs/r/rem/drive_tab.html ]
   G                            Dm
   E------------------------------------------------------------------------
B------------------------------------------------------------------------
G--4--------------------------2-0-----2----------------------------------
D--5------------------------5-----3/--0----------------------------------
A------------------------------------------------------------------------
E------------------------------------------------------------------------

(with distortion again)

          Dm            Dm
          Hey kids, shake a leg.   
E-5--------------------------------------------------------------5-------
B---8-6------------------------------------------------------------8-6---
G-------7-5-------------------5p7----5-----------------------------------
D---------5--------------------------5-----------------------------------
A------------------------------------------------------------------------
E------------------------------------------------------------------------
 


E---------------------------------------------------------------5--------
B-----------------------------6-----------------------------------8-6----
G-------7-------------------------------7-----------------------------7--
D-------7-------------------------------7--------------------------------
A------------------------------------------------------------------------
E------------------------------------------------------------------------

  Dm
  Ollie,   ollie,   ollie, ollie, ollie,       
E------------------------------------------------------------------------
B------------------------------------------------------------------------
G-5---------------------------------5p7------5---------------------------
D-5------------------------------------------5---------------------------
A------------------------------------------------------------------------
E------------------------------------------------------------------------

          Dm                             Dm
E-5------------------------------5---------------------------------------
B---8-6-------------6--------------8-6-----------------------------------
G-------7------------------7-----------7-5-------------------5p7---------
D-------7------------------7-------------5-------------------------------
A------------------------------------------------------------------------
E------------------------------------------------------------------------

   G                                 Dm
E------------------------------------------------------------------------
B------------------------------------------------------------------------
G--4--------------------------2-0-----2----------------------------------
D--5------------------------5-----3/--0----------------------------------
A------------------------------------------------------------------------
E------------------------------------------------------------------------

   Em                         Em                         G     Dm
E--0--------------------------0--------------------------0----1----------
B--0--------------------------0--------------------------0----3----------
G--0--------------------------0--------------------------0----2----------
D--2--------------------------2--------------------------2----0----------
A--2--------------------------2--------------------------2---------------
E--0--------------------------0--------------------------0---------------

   Em                         Em                          G     Dm
E--0--------------------------0--------------------------0----1----------
B--0--------------------------0--------------------------0----3----------
G--0--------------------------0--------------------------0----2----------
D--2--------------------------2--------------------------2----0----------
A--2--------------------------2--------------------------2---------------
E--0--------------------------0--------------------------0---------------

enjoy it, comments are welcom

Tim Fooy
tfoo@urania.be
Comments