Rem - Bad Day Chords & Tabs

 

Bad Day Chords & Tabs

Rem Chords & Tabs

Version: 3 Type: Tab 0 ratings
1 star 2 stars 3 stars 4 stars 5 stars
comments

Bad Day Tab

   
Intro 
                          
e-------------------------3--|
b-------------------------3--|
g---------------5-----0---3--|   
d--3-3-3p2-0-------0h2----5--|
a-----------3-3-----------5--|
E-------------------------3--|

Pre Chourus 

e----------------------------|
b----------------------------|
g--5-----------7-------------|  First time
d--5-----------7----8--------|
a--3-----------5----8--------|
E-------------------6--------|

e----------------------------|
b----------------------------|
g--5-----------7----------5--|  Second time
d--5-----------7----8--7--5--|
a--3-----------5----8--7--3--|
E-------------------6--5-----|

Back to Intro 
                         
e-------------------------3--|
b-------------------------3--|
g---------------5-----0---3--|   
d--3-3-3p2-0-------0h2----5--|
a-----------3-3-----------5--|
E-------------------------3--|

Pre Chourus 

e----------------------------|
b----------------------------|
g--5-----------7-------------|  First time
d--5-----------7----8--------|
a--3-----------5----8--------|
E-------------------6--------|

e----------------------------|
b----------------------------|
g--5-----------7----------5--|  Second time
d--5-----------7----8--7--5--|
a--3-----------5----8--7--3--|
E-------------------6--5-----|

Chourus 
  F      C      Gm
e--1------0------3------------|
b--1------1------3------------|
g--2------0------3------------| 
d--3------2------5------------|
a--0------3------5------------|
E----------------3------------|


Intro / Verse 
                         
e-------------------------3--|
b-------------------------3--|
g---------------5-----0---3--|   
d--3-3-3p2-0-------0h2----5--|
a-----------3-3-----------5--|
E-------------------------3--|
[ Tab from: http://www.guitartabs.cc/tabs/r/rem/bad_day_tab_ver_3.html ]
Pre Chourus 

e----------------------------|
b----------------------------|
g--5-----------7-------------|  First time
d--5-----------7----8--------|
a--3-----------5----8--------|
E-------------------6--------|

e----------------------------|
b----------------------------|
g--5-----------7----------5--|  Second time
d--5-----------7----8--7--5--|
a--3-----------5----8--7--3--|
E-------------------6--5-----|

Chourus 
  F      C      Gm
e--1------0------3------------|
b--1------1------3------------|
g--2------0------3------------|  
d--3------2------5------------|
a--0------3------5------------|
E----------------3------------|

Bridge Lick 
e-13-----13-----13-----13------|
b-15(b)--15(b)--15(b)--15(b)---|
g------------------------------|
d------------------------------|
a------------------------------|
E------------------------------|

Intro / Verse 
                         
e-------------------------3--|
b-------------------------3--|
g---------------5-----0---3--|   
d--3-3-3p2-0-------0h2----5--|
a-----------3-3-----------5--|
E-------------------------3--|

Pre Chorus 

e----------------------------|
b----------------------------|
g--5-----------7-------------|  First time
d--5-----------7----8--------|
a--3-----------5----8--------|
E-------------------6--------|

e----------------------------|
b----------------------------|
g--5-----------7----------5--|  Second time
d--5-----------7----8--7--5--|
a--3-----------5----8--7--3--|
E-------------------6--5-----|

Chours  
  F      C      Gm
e--1------0------3------------|
b--1------1------3------------|
g--2------0------3------------|  
d--3------2------5------------|
a--0------3------5------------|
E----------------3------------|



end in F
Comments