Rem - Animal Chords & Tabs

 

Animal Chords & Tabs

Rem Chords & Tabs

Version: 1 Type: Tab 1 rating
1 star 2 stars 3 stars 4 stars 5 stars
comments

Animal Tab

   
R.E.M. - Animal (from Best of 2003)
 
tabbed by MisterJones(mister.jones@aon.at)
lyrics taken from the R.E.M. page (www.remhq.com)
 
Verse: A2
Chorus: | Em | G | D | A |
Bridge: | C | D | (3x),   then | F | G |
 
This riff is played in the verse
    A2
e|------------7-----------7-------------------------------|
B|------5---------5-----------5---------------------------|
G|----------6-------6-----------6-------------------------|
D|--7-----------------7-----------------------------------|
A|--------------------------------------------------------|
E|--------------------------------------------------------|

[ Tab from: http://www.guitartabs.cc/tabs/r/rem/animal_tab.html ]
Bridge with solo
   C               D                C                D              
e---0----0-0---0--0----0-0---0--|---0----0-0---0----0--0--0--0--0--0--0--0--|
B--10---10-8---8--5----5-3---3--|--10---10-8---8---10-10-10-10-10-10-10-10--|
G-------------------------------|-------------------------------------------|
D-------------------------------|-------------------------------------------|
A-------------------------------|-------------------------------------------|
E-------------------------------|-------------------------------------------|
   C               D                 F               G
e---0-----0-0---0--0----0-0--0-----|---------------|---------------------|
B--10----10-8---8--5----5-3--3-5-3-|-6---6--6--6-5-|-7---7-7----7-7-7--7-|
G----------------------------------|---------------|---------------------|
D----------------------------------|---------------|---------------------|
A----------------------------------|---------------|---------------------|
E----------------------------------|---------------|---------------------|

 
Comments