Rem - All The Way To Reno Chords & Tabs

 

All The Way To Reno Chords & Tabs

Rem Chords & Tabs

Version: 1 Type: Bass Tab 0 ratings
1 star 2 stars 3 stars 4 stars 5 stars
comments

All The Way To Reno Bass Tab

-------------------------------------------------------------------------------
                             All the way to Reno - REM
-------------------------------------------------------------------------------
Tabbed by: Mike Kunz
E-mail: rmjk21@embarqmail.com


  ( Intro )
G|-------------------------------------------------------|
D|-------------------------------------------------------|
A|-3-33-3-----2-3-33-3-----2-3-33-3------2-3-33-3--------|
E|--------3-33---------3-33----------3-33---------3-33-3-|

  Hummin- all the way to reno
G|-----------3------------3------------3----------------|
D|--------5-5-5--------5-5-5--------5-5-5---------------|
A|-3-33-3-------3-33-3-------3-33-3-------5-55-5-3-33-3-|
E|------------------------------------------------------|

  Now sweet, you're so
G|-----------3------------3------------3----------------|
D|--------5-5-5--------5-5-5--------5-5-5---------------|
A|-3-33-3-------3-33-3-------3-33-3-------5-55-5-3-33-3-|
E|------------------------------------------------------|

  You know what you are?
G|-------------------------------------------|
D|---------5-55-55-55-5---------3-33-33-33-3-|
A|-1-3-5-6--------------1-3-5-6--------------|
E|-------------------------------------------|

  Wing, is written on your feet
G|-----------3------------3------------3----------------|
D|--------5-5-5--------5-5-5--------5-5-5---------------|
A|-3-33-3-------3-33-3-------3-33-3-------5-55-5-3-33-3-|
E|------------------------------------------------------|

  To dream-
G|-----------3------------3------------3----------------|
D|--------5-5-5--------5-5-5--------5-5-5---------------|
A|-3-33-3-------3-33-3-------3-33-3-------5-55-5-3-33-3-|
E|------------------------------------------------------|
[ Tab from: http://www.guitartabs.cc/tabs/r/rem/all_the_way_to_reno_btab.html ]
  You know what you are?
G|-------------------------------------------|
D|---------5-55-55-55-5---------3-33-33-33-3-|
A|-1-3-5-6--------------1-3-5-6--------------|
E|-------------------------------------------|

  You know who you are
G|--------------------------------------------------------|
D|--------5-55-5--------5-55-5--------5-55-5-3-33-33-33-3-|
A|-5-55-5--------5-55-5--------5-55-5---------------------|
E|--------------------------------------------------------|

  ( instrumental )
G|-------------------------------------------------------|
D|-------------------------------------------------------|
A|-3-33-3-----2-3-33-3-----2-3-33-3------2-3-33-3--------|
E|--------3-33---------3-33---------3-33----------3-33-3-|

  Hummin-all the way to reno
G|-----------3------------3------------3----------------|
D|--------5-5-5--------5-5-5--------5-5-5---------------|
A|-3-33-3-------3-33-3-------3-33-3-------5-55-5-3-33-3-|
E|------------------------------------------------------|

  You know what you are
G|-------------------------------------------|
D|---------5-55-55-55-5---------3-33-33-33-3-|
A|-1-3-5-6--------------1-3-5-6--------------|
E|-------------------------------------------|

  You know what you are
G|-------------------------------------------|
D|---------5-55-55-55-5---------3-33-33-33-3-|
A|-1-3-5-6--------------1-3-5-6--------------|
E|-------------------------------------------|

  Hummin-
G|-----------3------------3------------3------------3--|
D|--------5-5-5--------5-5-5--------5-5-5--------5-5-5-|
A|-3-33-3-------3-33-3-------3-33-3-------3-33-3-------|
E|-----------------------------------------------------|

  star-
G|-----------3------------3------------3------------3--|
D|--------5-5-5--------5-5-5--------5-5-5--------5-5-5-|
A|-3-33-3-------3-33-3-------3-33-3-------3-33-3-------|
E|-----------------------------------------------------|

  ( outro )  fade-
G|-----------3------------3------------3------------3--|
D|--------5-5-5--------5-5-5--------5-5-5--------5-5-5-|
A|-3-33-3-------3-33-3-------3-33-3-------3-33-3-------|
E|-----------------------------------------------------|
Comments