Rem - 7 Chinese Brothers Chords & Tabs

 

7 Chinese Brothers Chords & Tabs

Rem Chords & Tabs

Version: 1 Type: Tab 0 ratings
1 star 2 stars 3 stars 4 stars 5 stars
comments

7 Chinese Brothers Tab

   
------------------------------------------------------------------------
			     7 Chinese Bros. - REM
------------------------------------------------------------------------
Tabbed by: Barnaby Wilde
Email:

Verse:
e|--------------------------------------------------------------|
B|--------------------------------------------------------------|
G|-11-11-11-12-14-16-16-16-16-16-14-11-11-11-11-12-11-9-7-7-7-7-|
D|-0-0-0-0-0-0-0-0-0-0-0-0-0-0-0-0-0-0-0-0-0-0-0-0-0-0-0-0-0-0--|
A|--------------------------------------------------------------|
E|--------------------------------------------------------------|

Before vocal hit:
e|--10-10-10--|
B|------------|
G|---7--7--7--|
D|------------|
A|------------|
E|------------|
[ Tab from: http://www.guitartabs.cc/tabs/r/rem/7_chinese_brothers_tab.html ]
Riff and Bridge to Chorus:         Or:
e|---------------------------------2-3-2-0-------|
B|----------------------------------------3------|
G|-11-12-11-9-7----------------------------------|
D|-----------------------------------------------|
A|-----------------------------------------------|
E|-----------------------------------------------|


Chorus:
e|--0--0--0-0--0--0----0--0-2-3-2-0--|
B|---3--3----3--3---3---3----------3-|
G|-5--5--5----5--5--2-2--2-----------|
D|-----------------------------------|
A|-----------------------------------|
E|-----------------------------------|

Bridge:
e|-0--0-0---------------0--0-0-2-2-2-0-0-0-2-0-0-0-0-0-0-0-0-0-|
B|-0--0-0---------------0--0-0-3-3-3-3-3-3-3-3-2-2-2-0-0-0-2-0-|
G|-4--4-4-----0-----0---4--4-4---------------------------------|
D|-4--4-4----4-4---4-4--4--4-4---------------------------------|
A|-2--2-2-2-2---2-2-----2--2-2---------------------------------|
E|-------------------------------------------------------------|
Comments