Relient K - When I Go Down Chords & Tabs

 

When I Go Down Chords & Tabs

Relient K Chords & Tabs

Version: 2 Type: Tab 0 ratings
1 star 2 stars 3 stars 4 stars 5 stars
comments

When I Go Down Tab

   
-------------------------------------------------------------------------------
			   When I Go Down - Relient k 
-------------------------------------------------------------------------------
Tabbed by:threeswisher88
Email:

Tuning: Standard

Intro: play 1X
e|-----------------------------------------------------------------|
B|----------------------------------------------------------------- 
G|-----4-----4-----4-----4-----4-------4-----4-----4-----4-----4---|
D|---2-----2-----2-----2-----2---2---2-----2-----2-----2-----2---2-|
A|-4-----4-----4-----4-----4-------0-----0-----0-----0-----0-------|
E|-----------------------------------------------------------------|

e|-----------------------------------------------------------------|
B|-----------------------------------------------------------------|
G|-----4-----4-----4-----4-----4-------4-----4-----4-----4-----4---|
D|---2-----2-----2-----2-----2---2---2-----2-----2-----2-----2---2-|
A|-4-----4-----4-----4-----4---------------------------------------|
E|---------------------------------0-----0-----0-----0-----0-------|

Verse: Play 3X
e|-----------------------------------------------------------------|
B|----------------------------------------------------------------- 
G|-----4-----4-----4-----4-----4-------4-----4-----4-----4-----4---|
D|---2-----2-----2-----2-----2---2---2-----2-----2-----2-----2---2-|
A|-4-----4-----4-----4-----4-------0-----0-----0-----0-----0-------|
E|-----------------------------------------------------------------|
[ Tab from: http://www.guitartabs.cc/tabs/r/relient_k/when_i_go_down_tab_ver_2.html ]
e|-----------------------------------------------------------------|
B|-----------------------------------------------------------------|
G|-----4-----4-----4-----4-----4-------4-----4-----4-----4-----4---|
D|---2-----2-----2-----2-----2---2---2-----2-----2-----2-----2---2-|
A|-4-----4-----4-----4-----4-------0-----0-----0-----0-----0-------|
E|-----------------------------------------------------------------|
Prechorus: play 4x, then last 3 notes
e|---------------------------------------------------------------|
B|---------------------------------------------------------------|
G|--------2--------2-----------------4--------4------------------|
D|-----0--------0--------0--------0--------0--------0------------|4x
A|---------------------------------------------------------------|
E|--2--------2--------2--------3--------3--------3---------------|

e|---------------------------------------------------------------|
B|---------------------------------------------------------------|
G|--------1------------------------------------------------------|
D|---------------------------------------------------------------|
A|-----2---------------------------------------------------------|
E|--0------------------------------------------------------------|

Chorus
e|--2--------2---------3--------0-------------------------------------|
B|--3--------3---------3--------2-------------------------------------|
G|--2--------4---------0--------2-------------------------------------|
D|--0--------4---------0--------2-------------------------------------|
A|--0--------2---------2--------0-------------------------------------|
E|--X--------2---------3--------X-------------------------------------|

I'll figure out the rest another day.  I just figured that u guys would want to learn the chorus asap.


| /  slide up
| \  slide down
| h  hammer-on
| p  pull-off
| ~  vibrato
| +  harmonic
| x  Mute note
=============================================================================
Comments