Relient K - Trademark Chords & Tabs

 

Trademark Chords & Tabs

Relient K Chords & Tabs

Version: 1 Type: Tab 0 ratings
1 star 2 stars 3 stars 4 stars 5 stars
comments

Trademark Tab

   
-------------------------------------------------------------------------------
			    Trademark-Relient K
-------------------------------------------------------------------------------
Tabbed by:i_eat_goldfish
Email:Mx_blink_Px1801@yahoo.com

Tuning: Dropped D (DADGBe)
 This a new song by a sweet band from a new EP called "Employee of the Month"
ITS THE COOLEST!  you can only get this album at a show so if you dont have
one you can download all the songs on Kazaa.  this isnt 100% correct but its
really close.  listen to  the song for the timing.  There is 2 Guitars but i
am only doing one.

Intro.   (x4)
e|---------------------------------------------------------------------------|
B|-------2-2h4-4-4----2-2h4-4-4--------------2-2p1-1---2-2h4-1---------------|
G|---------------------------------------------------------------------------|
D|---------------------------------------------------------------------------|
A|--3-44------------------------0---------0----------------------------------|
D|--3-44-----------44-----------0---------0----------------------------------|
       (x2)
e|----------------------------------------------------------------------------|
B|--------------------------5-------------------------------------------------|
G|----------6----------------------7-------6-------4-------2-------2----------|
D|----x7-x7---x7-x7-7-x7-x7--x7-x7---x7-x7---x2-x2---x2-x2---x0-x0---x0-x0-4--|
A|----------------------------------------------------------------------------|
D|----------------------------------------------------------------------------|

Verse 1  (x2)
e|---------------------------------------------------------------------------|
B|---------------------------------------------------------------------------|
G|-----------------9xxxxxx--(x14)-11xxxxx--(x14)-7xxxxxx--(x14)--------------|
D|-----------------7xxxxxx--------9xxxxxx--------5xxxxxx---------------------|
A|--5xxxxxx--(x14)-----------------------------------------------------------|
D|--5xxxxxx------------------------------------------------------------------|
   p.m..........

Interlude
e|--------------------------------------|-------------------------------------|
B|--------------------------------------|-------------------------------------|
G|--------------------------------------|-------------------------------------|
D|--------------------------------------|-------------------------------------|
A|--44-444-4/77777777-00000000-22222222-|-44-444-4/77777777-00000000-22222222-|
D|--44-444-4/77777777-00000000-22222222-|-44-444-4/77777777-00000000-22222222-|

e|----------------------------------|
B|----------------------------------|
G|----------------------------------|
D|------------------9xxxxxxxx-------|
A|---7-(let ring)---7xxxxxxxx-------|
D|---7------------------------------|

Chorus  (x1)
e|---------------------------------------------------------------------------|
B|---------------------------------------------------------------------------|
G|---------------------------------------------------------------------------|
D|---------------------------------------------------------------------------|
A|--77-7777-77-7777-00-0000-00-0000-77-7777-77-7777-00-0000-00-0000----------|
D|--77-7777-77-7777-00-0000-00-0000-77-7777-77-7777-00-0000-00-0000----------|


e|---------------------------------------------------------------------------|
B|---------------------------------------------------------------------------|
G|---------------------------------------------------------------------------|
D|------7-----7----7-----7-----7----7-----7-----7----7-----7-----7-----------|
A|--9xx---9xx---9x---8xx---8xx---8x---7xx---7xx---7x---6xx---6xx---6x--------|
D|---------------------------------------------------------------------------|

Prelude
e|---------------------------------------------------------------------------|
B|---------------------------------------------------------------------------|
G|---------------------------------------------------------------------------|
D|--77-----777---------------------------------------------------------------|
A|--55-000-555-000-3---------------------------------------------------------|
D|-----000-----000-3---------------------------------------------------------|
[ Tab from: http://www.guitartabs.cc/tabs/r/relient_k/trademark_tab.html ]
e|----------------------------------------------------------------------------|
B|-------2-2h4-4-4----2-2h4-4-4--------------2-2p1-1---2-2h4-1-(x1)-----------|
G|------------------------------------------------------------------11--------|
D|------------------------------------------------------------------11-(x16)--|
A|--3-44------------------------0---------0-------------------------9---------|
D|--3-44-----------44-----------0---------0-----------------------------------|

e|---------------------------------------------------------------------------|
B|-------2-2h4-4-4----2-2h4-4-4--------------2-2p1-1---2-2h4-1---(x1)--------|
G|---------------------------------------------------------------------------|
D|---------------------------------------------------------------------------|
A|--3-44------------------------0---------0----------------------------------|
D|--3-44-----------44-----------0---------0----------------------------------|

       (x2)
e|---------------------------------------------------------------------------|
B|--------------------------5------------------------------------------------|
G|----------6----------------------7-------6-------4-------2-------2---------|
D|----x7-x7---x7-x7-7-x7-x7--x7-x7---x7-x7---x2-x2---x2-x2---x0-x0---x0-x0-4-|
A|---------------------------------------------------------------------------|
D|---------------------------------------------------------------------------|

Verse 2  (x2)
e|---------------------------------------------------------------------------|
B|---------------------------------------------------------------------------|
G|-----------------9xxxxxx--(x14)-11xxxxx--(x14)-7xxxxxx--(x14)--------------|
D|-----------------7xxxxxx--------9xxxxxx--------5xxxxxx---------------------|
A|--5xxxxxx--(x14)-----------------------------------------------------------|
D|--5xxxxxx------------------------------------------------------------------|
   p.m..........

Repeat interlude
Repeat chorus

SOLO  (play this fast)   (x4)
e|---------------------------------------------------------------------------|
B|---------------------------------------------------------------------------|
G|--6/7-7-6-4---4-6-4---6-4---4-2--------------------------------------------|
D|------------7-------4-----2------------------------------------------------|
A|---------------------------------------------------------------------------|
D|---------------------------------------------------------------------------|

Outro

e|---------------------------------------------------------------------------|
B|---------------------------------------------------------------------------|
G|---------------------------------------------------------------------------|
D|---------------------------------------------------------------------------|
A|--77-7777-77-7777-00-0000-00-0000-77-7777-77-7777-00-0000-00-0000----------|
D|--77-7777-77-7777-00-0000-00-0000-77-7777-77-7777-00-0000-00-0000----------|
  
e|-------------------------------------------------|--------------------------|
B|-------------------------------------------------|--------------------------|
G|-------------------------------------------------|--------------------------|
D|-------------------------------------------------|-7-7-7-7-7-7-7-7----------|
A|--77-7777-77-7777-00-0000-00-0000-77-7777-77-7777|-5-5-5-5-5-5-5-5----------|
D|--77-7777-77-7777-00-0000-00-0000-77-7777-77-7777|--------------------------|

e|---------------------------------------------------------------------------|
B|---------------------------------------------------------------------------|
G|---------------------------------------------------------------------------|
D|--11-11-11-11-10-10-10-10-9-9-9-9-8-8-8-8-77-----777-----------------------|
A|--9--9--9--9--8--8--8--8--7-7-7-7-6-6-6-6-55-000-555-000-------------------|
D|---------------------------------------------000-----000-------------------|
Repeat solo

End On

e|-------------|
B|-------------|
G|-------------|
D|----7--------|
A|----7--------|
D|----7--------|


Order:
Intro
Verse 1
Interlude
Chorus
Prelude
Verse 2
Interlude
Chorus
SOLO
Outro
Solo
End

| /  slide up
| \  slide down
| h  hammer-on
| p  pull-off
| ~  vibrato
| +  harmonic
| x  Mute note
===============================================================================
Comments