Relient K - The Pirates Who Dont Do Anything Chords & Tabs

 

The Pirates Who Dont Do Anything Chords & Tabs

Relient K Chords & Tabs

Version: 1 Type: Bass Tab 0 ratings
1 star 2 stars 3 stars 4 stars 5 stars
comments

The Pirates Who Dont Do Anything Bass Tab

The Pirates who dont do anything by relient k
Standard Tuning

G|---------------------------------------------------------------|
D|---------------------------------------------------------------| x2
A|---5------7------5------7--------------------------------------|
E|5-----5------5------5------5-----------------------------------|

G|---------------------------------------------------------------|
D|---------------------------------------------------------------|
A|-----------6-6--6-6-6--------------------------6-6--6-6-6---8--|
E|6-6--6-6-6------------6-6--6-6-6----6-6--6-6-6------------6---6|

G|---------------------------------------------------------------|
D|---------------------------------------------------------------|
A|---6-------8-----6--7-----8------------------------------------|
E|6----6--6-----6-------6------6---------------------------------|
[ Tab from: http://www.guitartabs.cc/tabs/r/relient_k/the_pirates_who_dont_do_anything_btab.html ]
G|---------------------------------------------------------------|
D|---------------------------------------------------------------|
A|-----------7-7--7-7-7----------------------------7-7--7-7-7----|
E|7-7--7-7-7------------7-7--7-7-7------7-7--7-7-7---------------|

G|---------------------------------------------------------------|
D|---------------------------------------------------------------|
A|---7-------9-----7--------9------------------------------------|
E|7----7--7-----7-----7--7-----7---------------------------------|

G|---------------------------------------------------------------|
D|------------------66666666-------------------------------------| x3
A|---------99999999----------77777777----------------------------|
E|77777777-------------------------------------------------------|

G|---------------------------------------------------------------|
D|---------------------------------------------------------------|
A|---9-----7-----------------------------------------------------|
E|7-----7-----7--------------------------------------------------|

G|------------2-3-5---------------------------2-3-5--------------|
D|----2-3-5-3---------2-3-5-----------2-3-5-3---------2----------|
A|--3---------------3---------2-3-5-3---------------3---3--------|
E|8-------------------------3------------------------------------|

Thanks, please rate it after you learn it.
_TheBassist01_
Comments