Relient K - The Only Thing Worse Than Beating A Dead Horse Is Betting On One Chords & Tabs

 

The Only Thing Worse Than Beating A Dead Horse Is Betting On One Chords & Tabs

Relient K Chords & Tabs

Version: 1 Type: Tab 0 ratings
1 star 2 stars 3 stars 4 stars 5 stars
comments

The Only Thing Worse Than Beating A Dead Horse Is Betting On One Tab

tuning: both gutiars all flatted

intro: guitar 1           guitar 2
eb--------------------------------------------------------------------->
Bb--------------------------------------------------------------------->
Gb-------------1/222-1/222---7-2-4---7-2-4xx---7-2-4---7-2-4----------->
Db-2/444-2/444-2/444-2/444-4-7-2-4-4-7-2-4xx-4-7-2-4-4-7-2-4----------->
Ab-------------------------4-5-0-2-4-5-0-2xx-4-5-0-2-4-5-0-2----------->
Eb-------------------------2-------2---------2-------2----------------->

verse: guitar 2
eb--------------------------------------------------------------------->
Bb---------------------------------333---55555------------------------->
Gb---7-2-4---7-2-4---7-2-4---7-2-4-222-6-44444----(then piano)--------->
Db-4-7-2-4-4-7-2-4-4-7-2-4-4-7-2-4-000-6-22222------------------------->
Ab-4-5-0-2-4-5-0-2-4-5-0-2-4-5-0-2-----4------------------------------->
Eb-2-------2-------2-------2------------------------------------------->
[ Tab from: http://www.guitartabs.cc/tabs/r/relient_k/the_only_thing_worse_than_beating_a_dead_horse_is_betting_on_one_tab.html ]
eb-------------------------------------222222-000000-444444-222222----->
Bb-3333------------3333----------------333333-222222-555555-444444----->
Gb-2222-2222-------2222-2222-4---4xxxx-222222-222222-444444-444444----->
Db-0000-2222-2222--0000-2222-4-2-4xxxx-000000-222222-222222-444444----->
Ab------0000-2222-------0000-2-2-2xxxx-000000-000000-222222-222222----->
Eb-----------0000--------------0--------------------------------------->

eb----------------------------2~~-------------------------------------->
Bb----------------------------2~~-------------------------------------->
Gb-77-2-77-2-44444444-4~~-----3~~-------------------------------------->
Db-77-2-77-2-44444444-4~~-2~~-4~~-------------------------------------->
Ab-55-0-55-0-22222222-2~~-2~~-4~~-------------------------------------->
Eb------------------------0~~-2~~-------------------------------------->

Just listen to the politician wishing his position wasn't missing everything
his heart would like to say  and a constant in the constitution is that there
cant be one solution it'd be so far from the truth and we would hate it anyway
opinions are immunity to being told you're wrong  paper rock and scissors they
all have their pros and cons

and all of us we will endure  just like we always have  but you just can't be too
sure  how long this will last  cause we control the chaos in the back of our minds
our problems seem so small  but they grow on us  like gravity  but gravity still
makes  us  fall

well, that's it, enjoy!
Comments