Relient K - Softer To Me Chords & Tabs

 

Softer To Me Chords & Tabs

Relient K Chords & Tabs

Version: 6 Type: Tab 0 ratings
1 star 2 stars 3 stars 4 stars 5 stars
comments

Softer To Me Tab

   
Intro: x4

Riff 1
e|------------------------------------------------------------|
B|------------------------------------------------------------|
G|--5-5-6-5--5-5-6-5---5-----5----------------7---------------|
D|-----------------------666---666--66-7-6-66----55-66-55-6---|
A|------------------------------------------------------------| 
E|------------------------------------------------------------|

Chords For Verses

     F             C#              G#              D#
[ Tab from: http://www.guitartabs.cc/tabs/r/relient_k/softer_to_me_tab_ver_6.html ]
e|------------------------------------------------------------
B|------------------------------------------------------------|
G|------------------6-------------------------------8---------|
D|-3----------------6---------------6---------------8---------|
A|-3----------------4---------------6---------------6---------|
E|-1--------------------------------4-------------------------|


For the Chorus just pick the chords above

During the last six measure of the song repeat Riff 1

Don't have the lyrics yet sorry

Good Luck And Have Fun This Is An Awesome Song!!!!!!!!!1
Comments