Relient K - Softer To Me Chords & Tabs

 

Softer To Me Chords & Tabs

Relient K Chords & Tabs

Version: 4 Type: Tab 0 ratings
1 star 2 stars 3 stars 4 stars 5 stars
comments

Softer To Me Tab

   
------------------------------------------------------------
                    SOFTER TO ME - Reliant K
------------------------------------------------------------
By: DrBone56

Intro: (4x)
 play this really fast
e|---------------------------------------------------------|
B|-112111211---1----------4--------------------------------|
G|----------111-111-113111-1-0010003-----------------------|
D|---------------------------------------------------------|
A|---------------------------------------------------------|
E|---------------------------------------------------------|

verse: 
    "where am i...  where are you..."
e|---------------------------------------------------------|
B|---------------------------------------------------------|
G|-----------------66------6----------------888888---------|
D|-33-----------2--66------6---------666666-888888---------|
A|-33-----------2--44------4---------666666-666666---------|
E|-11-----------0--------------------444444----------------|
[ Tab from: http://www.guitartabs.cc/tabs/r/relient_k/softer_to_me_tab_ver_4.html ]
e|---------------------------------------------------------|
B|---------------------------------------------------------|
G|--------666666--------888888--------666666--------888888-|
D|-333333-666666-666666-888888-333333-666666-666666-888888-|
A|-333333-444444-666666-666666-333333-444444-666666-666666-|
E|-111111--------444444--------111111--------444444--------|

e|---------------------------------------------------------|
B|---------------------------------------------------------|
G|-------------6-------------------------------------------|
D|-----3-----6---------6-----------------------------------|
A|---3-----4---------6-------------------------------------|
E|-1---------------4--------33333330--1--------------------|
                           (palm mute) "life could you be a 
                                       little softer to me"
After chorus:
e|---------------------------------------------------------|
B|-11111111-22222222-44444444------------------------------|
G|----------------------------0010001----------------------|
D|---------------------------------------------------------|
A|---------------------------------------------------------|
E|---------------------------------------------------------|
Comments