Relient K - Sadie Hawkins Dance Chords & Tabs

 

Sadie Hawkins Dance Chords & Tabs

Relient K Chords & Tabs

Version: 4 Type: Tab 0 ratings
1 star 2 stars 3 stars 4 stars 5 stars
comments

Sadie Hawkins Dance Tab

   
Capo 3rd

Intro. X 4
E----------------------------------------------------6--6--6-|
B-3-3-3-4-4-4-6-6--3-3-3-4-4-4-6-6--3-3-3-4-4-4-6-6--6--6--6-|
G------------------------------------------------------------|
D------------------------------------------------------------|
A------------------------------------------------------------|
E------------------------------------------------------------|


Verse- softly in background

E---6--6-----5--5-----3--3-----3--3-----6--6-----5--5-----3--3-----3--3-|
B-6--6-----6--6-----6--6-----4--4-----6--6-----6--6-----6--6-----4--4---|
G-----------------------------------------------------------------------|
D-----------------------------------------------------------------------|
A-----------------------------------------------------------------------|
E-----------------------------------------------------------------------|
[ Tab from: http://www.guitartabs.cc/tabs/r/relient_k/sadie_hawkins_dance_tab_ver_4.html ]
E---6--6-----5--5-----3--3-----3--3-----6--6-----5--5-----3--3-----3--3-|
B-6--6-----6--6-----6--6-----4--4-----6--6-----6--6-----6--6-----4--4---|
G-----------------------------------------------------------------------|
D-----------------------------------------------------------------------|
A-----------------------------------------------------------------------|
E-----------------------------------------------------------------------|

Chorus- 2 beat (strum 4 times for every normal 8 strums)
(Chord represents individual strum)
Basically, the notes for the chorus are
G G G G  D D D D Em Em Em Em C(stop)

G G G G  D D D D Em Em Em Em CCCC CC

(Repeat Verse)

(Chorus)

(Interlude) Pretty much like the intro. Just a small change on end
E---------------------------------------------------------------------|
B-3-3-3-4-4-4-6-6--3-3-3-4-4-4-6-6--3-3-3-4-4-4-6-6-6-6-6-4-4-4-3~----|
G---------------------------------------------------------------------|
D---------------------------------------------------------------------|
A---------------------------------------------------------------------|
E---------------------------------------------------------------------|

Bridge is only guitar 1, join in on chorus x 2

(Chorus x 2)
Comments