Relient K - Rest Is Up To You Chords & Tabs

 

Rest Is Up To You Chords & Tabs

Relient K Chords & Tabs

Version: 2 Type: Bass Tab 0 ratings
1 star 2 stars 3 stars 4 stars 5 stars
comments

Rest Is Up To You Bass Tab

Rest up to you bass solo by Relient K
Standard Tuning

(Intro)
G:------------------|
D:------------------|
A:------------------|
E:5~----7~----0~----|
[ Tab from: http://www.guitartabs.cc/tabs/r/relient_k/rest_is_up_to_you_btab_ver_2.html ]
play fast
G:------------------------------|
D:----4-6-----4-----------------|  x6
A:7-7-----4-4---7--4-4-4-7------|
E:-------------------------4-4-4|

"I was just about to quote Mark Twain,
When I realized that it's all in vain.
A twist of fate a twisted look of pain,
To defeat the wheat go against the grain"

Tabbed by:
_TheBassist01_
Comments