Relient K - Pressing On Chords & Tabs

 

Pressing On Chords & Tabs

Relient K Chords & Tabs

Version: 1 Type: Tab 3 ratings
1 star 2 stars 3 stars 4 stars 5 stars
comments

Pressing On Tab

Relient K								X=mute 
Pressing On	
Anatomy of the Tongue in Cheek
Tabbed By the Rhyswoo (sk8bum42@sbcglobal.net)
[----------------------------------------------
[----------------------------------------------
[----------------------------------------------
[------2h3-------2-0-------2h3-------2-0--
[-3-3-----------------------------------------
[-------------3-3-------5-5------1-1--------
This is how half past insanity plays pressing on.
Play this four times.


Guitar 2
[------------------
[------------------
[------9/7/-------
[------9/7/-------
[------7/5/-------
[------------------
Guitar 2 comes in like this on the last notes 
Of the first time through the intro 

Guitar 2
[------------------------------------------------
[------------------------------------------------
[-5/xxxx---4/xxxx---------------------------
[-5/xxxx---4/xxxx---7/xxxx---3/xxxx----
[-3/xxxx---2/xxxx---7/xxxx---3/xxxx----
[------------------------5/xxxx---1/xxxx----
Play this the last three times of
the intro and through the verse.
[ Tab from: http://www.guitartabs.cc/tabs/r/relient_k/pressing_on_tab.html ]
Guitar 1 (singer)
[---------------------------------------------
[---------------------------------------------
[-5/5/5/5-----------------------------------
[-5/5/5/5-5/5/5/5-7/7/7/7-3/3/3/3-------
[-3/3/3/3-5/5/5/5-7/7/7/7-3/3/3/3-------
[----------/3/3/3/3-5/5/5/5-1/1/1/1-------
This is the verse. Palm mute a little but not 
too much. Bridge and words on next page…


Guitar 2
[------------------
[------------------
[------9/7/-------
[------9/7/-------
[------7/5/-------
[------------------
Guitar 2 comes in like this on the last notes 
Of the first time through the intro 

Guitar 2
[------------------------------------------------
[------------------------------------------------
[-5/xxxx---4/xxxx---------------------------
[-5/xxxx---4/xxxx---7/xxxx---3/xxxx----
[-3/xxxx---2/xxxx---7/xxxx---3/xxxx----
[------------------------5/xxxx---1/xxxx----
Play this the last three times of
the intro and through the verse.

Guitar 1 (singer)
[---------------------------------------------
[---------------------------------------------
[-5/5/5/5-----------------------------------
[-5/5/5/5-5/5/5/5-7/7/7/7-3/3/3/3-------
[-3/3/3/3-5/5/5/5-7/7/7/7-3/3/3/3-------
[----------/3/3/3/3-5/5/5/5-1/1/1/1-------
This is the verse. Palm mute a little but not 
too much. Bridge and words on next page…



[----------------------------------------
[----------------------------------------
[-5/-7/-5/-----------5/-7/-5/----------
[-5/-7/-5/-5/-7/-5/-5/-7/-5/-5/-------
[-3/-5/-3/-5/-7/-5/-3/-5/-3/-5/-------
[-----------3/-5/-3/-----------3/-------
This is the bridge. Let each note ring.
The chords make a U shape on your
Guitar…you’ll see when you play it.
Comments