Relient K - Pressing On Chords & Tabs

 

Pressing On Chords & Tabs

Relient K Chords & Tabs

Version: 1 Type: Bass Tab 0 ratings
1 star 2 stars 3 stars 4 stars 5 stars
comments

Pressing On Bass Tab

   
Artist : Relient K
Song : Pressing On
Tabbed by: Lampe

This one's really simple and sounds really good when you get it right.

After the guitar intro you play this, this is the main riff for pretty
much the whole song.

G|---------------------------------------|
D|---------------------------------------|
A|-4-4-44--------1-1-11------------------|
E|--------4--4-4-4------2--2-2-2---------|

Then for the bridge/prechorus or whatever you wanna call it you do this

   Somewhere out there I left my worries all behind...
G|--------------------------------------------------|
D|---------------3/4-44333/4-44---------------------|
A|-4/6-66444/6-66--------------4--4--4--4-----------|
E|---------------------------------------4--4--4--4-|

  We're going and I'm never knowing...
G|----------------------------------------------------------------------|
D|---------------3/4-44333/4-44-----------------------------------------|
A|-4/6-66444/6-66--------------4--4--4--4-------------------------------|
E|---------------------------------------4--4--4--4--2--2--2--2--4--4--4|

For the chorus play the main riff, except for the last part of the chorus,
play this
[ Tab from: http://www.guitartabs.cc/tabs/r/relient_k/pressing_on_btab.html ]
  I'm done with that, I've got one foot...
G|------------------------------------------------|
D|------------------------------------------------|
A|-4-4-44--------1-1-11----------4-4-4444---------|
E|--------4--4-4-4------2--2-2-2---------2-2-2-2-2|

then everything fades out but the drums and bass, leading into the slow part,
play this twice
                         Look on me but you don't look down on me at all
G|----------------------------------------------------------------------|
D|----------------------------------------------------------------------|
A|-4-444-444-4-4-444-444--------------------------------4-4-4-4-4-4-4-4-|
E|----------------------2-2-2-2-2-2-2-2-4-4-4-4-4-4-4-4-----------------|

G|-----------------|
D|-----------------|
A|-4-4-4-4-4-4-4-4-|
E|-----------------|

Then this once
   I think we're goin somewhere, we're onto somethin good here
G|----------------------------------------------------------------|
D|----------------------------------------------------------------|
A|---------------------------------1-1-1-1-1-1-1-1----------------|
E|-2-2-2-2-2-2-2-2-4-4-4-4-4-4-4-4----------------4-4-4-4-4-4-4-4-|

G|----------------------------|
D|----------------------------|
A|----------------4(let ring)-|
E|-2------4-------------------|
Comments