Relient K - One Im Waiting For Chords & Tabs

 

One Im Waiting For Chords & Tabs

Relient K Chords & Tabs

Version: 2 Type: Tab 0 ratings
1 star 2 stars 3 stars 4 stars 5 stars
comments

One Im Waiting For Tab

   
tuning:standard (you can play parts with drop d tuning though)

intro  guitar 1  played very fast
e--------------------------------------------------------------->
B--------------------------------------------------------------->
G-13----13----13----13----13--13-10----10----10----10----10--10->
D---1111--1111--1111--1111--11-----1111--1111--1111--1111--11--->
A--------------------------------------------------------------->
E--------------------------------------------------------------->

e---------------------------------------------------------------->
B---------------------------------------------------------------->
G-11----11----11----11----11--11-8----8----8----8-13-13-13-13-13->
D---1111--1111--1111--1111--11----1111-1111-1111--11-11-11-11-11->
A---------------------------------------------------------------->
E---------------------------------------------------------------->
 repeat intro while guitar 2 starts playing

intro cont'd  guitar 2
e-------------------------------------------------------|------------->
B-------------------------------------------------------|------------->
G--------------------------------6-6-6-6-6-6-6-6-6-6-6-6|------------->
D-4-4-4-4-4-4-4-4-4-4-4-4-4-4-4--6-6-6-6-6-6-6-6-6-6-6-6|4xx4xx4xxxx4->
A-4-4-4-4-4-4-4-4-4-4-4-4-4-4-4--4-4-4-4-4-4-4-4-4-4-4-4|4xx4xx4xxxx4->
E-2-2-2-2-2-2-2-2-2-2-2-2-2-2-2-------------------------|2xx2xx2xxxx2->
repeat-                        -                       -|(2nd x)-    -|

verse
e---------------------------------------------------------------->
B---------------------------------------------------------------->
G-----56-----56-----56-----56-666-56-666-56-5-5--------1------13->
D-444-36-444-34-444-36-444-34-666-36-666-34-343444-444-33-444-34->
A-444--4-444----444--4-444----444--4-444-----6-444-444--4-444---->
E-222----222----222----222---------------------222-222----222---->

e----------------------------->
B----------------------------->
G-----1------13-6666---------->
D-444-33-444-34-6666-4~~--6~~->
A-444--4-444----4444-4~~--6~~->
E-222----222---------2~~--4~~->
[ Tab from: http://www.guitartabs.cc/tabs/r/relient_k/one_im_waiting_for_tab_ver_2.html ]
chorus
e------------------------------------------------------->|----->
B------------------------------------------------------->|----->
G-6--6--6--66--6--6--6--66-6--6--6--66--6--6--6--66-8~~->|-4~~->
D-6--6--6--66--6--6--6--66-4--4--4--44--4--4--4--44-8~~->|-4~~->
A---------------------------------------------------6~~->|-2~~->
E------------------------------------------------------->|----->
 repeat                                                  (2ndx)

solo (I'm still waiting for you to be the one I'm waiting for)
e-------------------------------------------------------------->
B-------------------------------------------------------------->
G-------------------------------------------------------------->
D--------3----------3-----------3----------3--4444444444444444->
A--44-64--4~~-44-64--4~~--44-64--4~~-44-64--4-4444444444444444->
E-2--4--6----2--4--6-----2--4--6----2--4--6---2222222222222222->

e--------------------------------------------------------------------->
B--------------------------------------------------------------------->
G-666666666666666666666--------------------------66666666666666666666->
D-666666666666666666666-666-44444444444444444444-66666666666666666666->
A-444444444444444444444-666-44444444444444444444-44444444444444444444->
E-----------------------444-22222222222222222222---------------------->

e-----------------------------------------------------|
B-----------------------------------------------------|
G--------6----6-------6----6---6~~---6~~---8~~---6~~--|
D-666-44-4-44-4-66-44-4-44-4-6~6~~---4~~---8~~---4~~--|
A-666-44---44---66-44---44---6~4~~---------6~~--------|
E-444-22---22---44-22---22---4~-----------------------|

repeat intro cont'd then end with:

e--------------------------------------------------->
B--------------------------------------------------->
G-11-11-10--------------------------------------3~~->
D--------------8--8--8--886--6--6--664--4--4--441~~->
A----------11--8--8--8--886--6--6--664--4--4--44---->
E--------------6--6--6--664--4--4--442--2--2--22---->

e------------------------------------------>
B------------------------------------------>
G----------------------------------3~~----->
D-8--8--8--886--6--6--664--4--4--441~~-4~~->
A-8--8--8--886--6--6--664--4--4--44----4~~->
E-6--6--6--664--4--4--442--2--2--22----2~~->

outro: repeat the "I'm still waiting..." part twice (let it ring)

well, let me know how I did.  its a pretty hard song to play at first, but once
you get the hang of it, it sounds really good.  well, thats it so thanks and enjoy!
Comments