Relient K - One Im Waiting For Chords & Tabs

 

One Im Waiting For Chords & Tabs

Relient K Chords & Tabs

Version: 2 Type: Bass Tab 0 ratings
1 star 2 stars 3 stars 4 stars 5 stars
comments

One Im Waiting For Bass Tab

----------------------------------------------------------------------------
	     The One I'm Waiting For - Relient k
----------------------------------------------------------------------------

Tuning:GDAE

G|--111-1----------------111-1----------------|
D|---------4(16)-----------------4(16)--------|
A|----------------4(13)-----------------4(10)-|
E|--------------------------------------------|

G|--------------------------------------|
D|-444-444-444-444----------------------|
A|------------------444-444-444-----222-|
E|--------------------------------------|

G|----------------------------------------------|
D|--444-444-444-444-----------------------------|
A|-------------------444-444-444--000-----------|
E|-------------------------------------2------4-|
[ Tab from: http://www.guitartabs.cc/tabs/r/relient_k/one_im_waiting_for_btab_ver_2.html ]
G|---------------------------|
D|---------------------------|
A|-6-6-6-6-3-3-3-3-0-0-0-0---|x2
E|-------------------------2-|
Pre-chorus
G|----------------------------|
D|----------------------------|
A|----------1------------1----|x2
E|--2---4-------2----4----0-1-|

G|---------------------|            G|-----------| 
D|--4(16)--------------|            D|-----------|
A|---------4(13)-------|x2          A|-----------|
E|-----------------444-|            E|-22-22-2-2-|
chorus
G|---------------------|
D|---------------------|
A|----4(8)--------1(8)-|x2
E|---------------------|

Bridge
G|--------|
D|------4-|
A|--4-----|
E|--------|

G|---------------------------|
D|---------------------------|
A|-6-6-6-6-3-3-3-3-0-0-0-0---|x2
E|-------------------------2-|

G|---------------------|
D|---------------------|
A|----4(8)--------1(8)-|x4
E|---------------------|
Outro
G|---------------------|
D|---------------------|
A|---1~----------------|
E|---------------------|

|~ let it ring
============================================================================
Comments