Relient K - My Way Or The Highway To Hell Chords & Tabs

 

My Way Or The Highway To Hell Chords & Tabs

Relient K Chords & Tabs

Version: 1 Type: Bass Tab 0 ratings
1 star 2 stars 3 stars 4 stars 5 stars
comments

My Way Or The Highway To Hell Bass Tab

   
Band: Relient k
Album: The anatomy of the tongue and cheek
Song: My way or the highway...
Tabbed by: Bassman09
Tuning: Standard E-A-D-G

This is an awesome song. It took me about 10 minutes to tabs since it's really easy.
E-mail me for comments, questions, or corrections at soccerdude12@tds.net

Intro 0:00 "Should I start this song off..."

G----------------------------------]
D----------------------------------] Repeat
A-3-3-3333--------3-3-3333---------] 
E---------1-1-1111--------1-1-1111-]

Cello solo 0:12

pre-verse  0:18 "Cuz I'm looking forward to..."

G-------------------]
D-------------------]
A-------------------]
E-11111111-33333333-]

Verse 0:21 "I didn't vote, but"                 0:33 "No one around"
[ Tab from: http://www.guitartabs.cc/tabs/r/relient_k/my_way_or_the_highway_to_hell_btab.html ]
G-----------------------------------]        G--------------------------]
D-----------------------------------]-Repeat D--------------------------]
A-3333333333333333------------------]        A-00000000--------33333333-]
E-----------------11111111-33333333-]        E---------33333333---------]

Verse (continued) 0:37

G-----------------------------]
D-----------------------------]
A-0000----------------------3-]
E-----3333-11111111-33333333--]

Pre-chorus

Guitar Solo
Bass comes in at 0:48

G------------------------------------]
D------------------------------------]
A-33333333---------------------------]
E---------33333333-11111111-33333333-]

G-----------------------------]
D-----------------------------] Repeat
A-0-0000--------------------3-]
E-------3-3333-1-1111-1-1111--]

Chorus 1:09 "By the wateline..."

G----------------------------------]
D----------------------------------] Repeat 4x
A-33333333--------00000000---------]
E---------11111111--------11111111-]

Verse 2
Chorus
Pre-chorus
Chorus

Outro 3:25  Same as Intro

G------------------]
D------------------] Repeat 6x
A-3-3-3333---------]
E---------1-1-1111-]

That's it. Pease rate this bass tab.
Comments