Relient K - My Girlfriend Chords & Tabs

 

My Girlfriend Chords & Tabs

Relient K Chords & Tabs

Version: 5 Type: Tab 0 ratings
1 star 2 stars 3 stars 4 stars 5 stars
comments

My Girlfriend Tab

   
Relient K - My Girlfriend

Standard tuning


intro

e|-----10---11---10---------6-------5--------------------|
B|-8-8----8----8----8---4-4---4-3-3---3------------------|
G|-------------------------------------------------------|
D|-------------------------------------------------------|
A|-------------------------------------------------------|
E|-------------------------------------------------------|


gtr.1

e|-------------------------------------------------------|
B|-------------------------------------------------------|
G|-----777-5-5-5-5--9-----7------------------------------|
D|-555-777-5-5-5-5--9-----7------------------------------|
A|-555-555-3-3-3-3--7-----5------------------------------|
E|-333---------------------------------------------------|
play this twice then gtr.2 comes in with this
gtr.2
e|---------0--3--5---------------------------------------|
B|-----------------5-5-3-0-------------------------------|
G|-------------------------------------------------------|
D|-------------------------------------------------------|
A|-----555-----------------------------------------------|
E|-333---------------------------------------------------|

Verse
[ Tab from: http://www.guitartabs.cc/tabs/r/relient_k/my_girlfriend_tab_ver_5.html ]
e|-------------------------------------------------------|
B|-------------------------------------------------------|
G|-----777-5555-9-7--------------------------------------|
D|-555-777-5555-9-7--------------------------------------|
A|-555-555-3333-7-5--------------------------------------|
E|-333---------------------------------------------------|

Chorus

e|-------------------------------------------------------|
B|-------------------------------------------------------|
G|-555-55555--777-77777-------------777-77777------------|
D|-555-55555--777-77777--555-55555--777-77777------------|
A|-333-33333--555-55555--555-55555--555-55555------------|
E|-----------------------333-33333-----------------------|
pm **  **     **  **     **  **     **  **

outro

e|-------------------------------------------------------|
B|-------------------------------------------------------|
G|----------77777777-55555555-77777777-------------------|
D|-55555555-77777777-55555555-77777777-------------------|
A|-55555555-55555555-33333333-55555555-------------------|
E|-33333333----------------------------------------------|
play this 4 times then on the 5th times play:
e|-------------------------------------------------------|
B|-------------------------------------------------------|
G|----------77777777-55555555-7--------------------------|
D|-55555555-77777777-55555555-7-let ring--5--------------|
A|-55555555-55555555-33333333-5-----------5-let ring-----|
E|-33333333-------------------------------3--------------|

end on

e|---|
B|---|
G|---|
D|-5-|
A|-5-|
E|-3-|

thats all. have fun playing this cool song.
Comments