Relient K - My Girlfriend Chords & Tabs

 

My Girlfriend Chords & Tabs

Relient K Chords & Tabs

Version: 2 Type: Bass Tab 0 ratings
1 star 2 stars 3 stars 4 stars 5 stars
comments

My Girlfriend Bass Tab

-----------------------------------------------------------------------
Tabbed by:  Bobby Meyer
Song: My Girlfriend
Artist: Relient K
Album: Relient K
Tuning: Standered EADG
-----------------------------------------------------------------------
Intro

No bass

Verse

G---------------------
D---------------------
A------5--3--7--5-----
E---3-----------------

Chorus
[ Tab from: http://www.guitartabs.cc/tabs/r/relient_k/my_girlfriend_btab_ver_2.html ]
G--------------------------------------------------------
D--------------------------------------------------------
A--3--5-----5--3--5-----5--3--5-----5--3--5-----5--3--5--
E--------3-----------3-----------3-----------3-----------

-----------------------------------------------------------------------
Thats it !

Contact me at uprightcitizens@hotmail.com
or on AIM with "sargeantskeletor"
Comments