Relient K - More Than Useless Chords & Tabs

 

More Than Useless Chords & Tabs

Relient K Chords & Tabs

Version: 2 Type: Tab 0 ratings
1 star 2 stars 3 stars 4 stars 5 stars
comments

More Than Useless Tab

great song by relient k

guitar 2 is in drop d and guitar 1 is all flatted (to play the intro of this song, you
must have a pedal that records what you do and then plays it back when you step on it again)

intro:

guitar 1
eb--000-000-000-0-00-000-000-000-0-00------------|
Bb--444-555-000-2-44-444-555-000-2-44------------|
Gb-----------------------------------------------|      record this
Db-----------------------------------------------| then let the recorded
Ab-----------------------------------------------|     version play
Eb-----------------------------------------------|       (only for
                                                      beginning intro)
guitar 2
e------------------------------------------------|
B------------------------------------------------|
G-5555-5---------------5555-5---------------8~~--|
D-5555-566-6-1111-1111-5555-566-6-1111-1111-8~~--|
A-3333-366-6-1111-1111-3333-366-6-1111-1111-6~~--|
D-------66-6-1111-1111-------66-6-1111-1111------|

guitar 1    starting here ^ in last measure (while the recorded intro
eb------------------------------------------------|    is being played)
Bb------------------------------------------------|
Gb------------------------3-5--3-6-5--3-5-5-55555-|
Db------------------------------------------------|
Ab------------------------------------------------|
Eb------------------------------------------------|

verse:

guitar 2
e------------------------------------------------|
B------------------------------------------------|
G-8888-5555------8888-5555-------88-88-55-5------|
D-8888-5555-6666-8888-5555-6666--88-88-55-566-88-|
A-6666-3333-6666-6666-5555-6666--66-66-33-366-88-|
D-----------6666-----------6666------------66-88-|
(palm mute all beats up to here^)

pre chorus:
[ Tab from: http://www.guitartabs.cc/tabs/r/relient_k/more_than_useless_tab_ver_2.html ]
guitar 2                                             guitar 1
e--------------------------------------------------|-00000000000000000-|
B--------------------------------------------------|-55555555555555555-|
G-8888-7777-5555------8888-7777-5555------55555-43-|-------------------|
D-8888-7777-5555-6666-8888-7777-5555-6666-55555-43-|-------------------|
A-6666-5555-3333-6666-6666-5555-3333-6666-33333-21-|-------------------|
D----------------6666----------------6666----------|-------------------|
(palm mute all beats)

chorus:

guitar 2
e------------------------------------------------|
B------------------------------------------------|
G-88-88-8----------55-55-55----------------------|
D-88-88-8-66-66-66-55-55-55-66-66-66-6~~---------|
A-66-66-6-66-66-66-33-33-33-66-66-66-6~~---------|
D---------66-66-66----------66-66-66-6~~---------|

guitar 1
eb-----------------------------------------------|
Bb-8h9p-6----------------------------------------|
Gb-------7/8-------------------------------------|
Db-----------------------------------------------|
Ab-----------------------------------------------|
Eb-----------------------------------------------|

repeat intro and verse

with pre-chorus:

guitar 2
e----------11-----------11-----------------------|
B--11-11-11--11-11-11-11--11---------------------|
G-8--8--8------8--8--8---------------------------|
D------------------------------------------------|
A------------------------------------------------|
D------------------------------------------------|

repeat chorus then

guitar 2
e------------------------------------------------|
B------------------------------------------------|
G-8888-8888-5555---------------------------------|
D-8888-8888-5555-6666----------------------------|
A-6666-5555-3333-6666----------------------------|
D----------------6666----------------------------|

bridge:

guitar 1 repeat intro

guitar 2
e------------------------------------------------------|
B------------------------------------------------------|
G-8~~5~~---8~~5~~--------5555------8888-5555-----------|
D-8~~5~~6~~8~~5~~6~~6666-5555-6666-8888-5555-1111-8888-|
A-6~~3~~6~~6~~3~~6~~6666-3333-6666-6666-3333-1111-8888-|
D-------6~~------6~~6666------6666-----------1111-8888-|

e------------------------------------------------------|
B------------------------------------------------------|
G-8~~5~~---8~~5~~--------5555------8888-5555-----------|
D-8~~5~~6~~8~~5~~6~~6666-5555-6666-8888-5555-1111-8888-|
A-6~~3~~6~~6~~3~~6~~6666-3333-6666-6666-3333-1111-8888-|
D-------6~~------6~~6666------6666-----------1111-8888-|

repeat chorus twice then repeat intro

again, great song and if you have any Q's or comments please email me at 
thanks! enjoy
Comments