Relient K - Mood Rings Chords & Tabs

 

Mood Rings Chords & Tabs

Relient K Chords & Tabs

Version: 1 Type: Tab 0 ratings
1 star 2 stars 3 stars 4 stars 5 stars
comments

Mood Rings Tab

   
Standard Tuning

Verse 1: 
//    Guitar 1 
||    e|---------------------------------7-7\-|
||    B|-----------------------9---9----7-----|
||    G|-8----------------88---9---9------8---|
||    D|-9---6---6-----9-9-9---6---7---9------|
||    A|-7---7---7----9-6--7-------0----------|
||    E|-----4---5---7------------------------|
||    
||    Guitar 2 (palm mute)
||    e|--------------------------------------|
||    B|--------------------------------------|
||    G|-9)-------------8)-9)-----------------|
||    D|-9)--6)--7)--9)-9)-9)--6)--7)--9)-----|
||    A|-7)--7)--7)--9)-6)-7)--7)--7)--9)-----|
||    E|-----4)--5)--7)--------4)--5)--7)-----|
\\       ) means keep strumming until chord change


1st part of Chorus:
//    G1 
||        b|------------|  b|--|
||    e|-----------------7--7)--|
||    B|-----------------10b12)-|
||    G|-8b99999:9-9:9-9:-------|
||    D|------------------------|
||    A|------------------------|
||    E|------------------------|
||       b means bend, hold bend for b|-|
||       : means short, mute after the strum
||    
||    G2 (w/dist)
||    e|-------------------------------------------------|
||    B|---------------------------------------------999-|
||    G|---------6-6x------------------6-6x----------999-|
||    D|-4-44444-6-6x6-6/9-9)---444444-6-6x6-6/9-9)------|
||    A|-4-4444404-4x7-7/9-9)--044444404-4x7-7/9-9)------|
\\    E|-2-220220----4-4/7-7)--02220220----4-4/7-7)------|

G2                   (play 2x)
e|---------------------------|--------|
B|--------------------------*|--------|
G|-------------------9)--8)--|--------|
D|-7-7:-----9-9:-----9)--9)--|-7)--9)-|
A|-7-7:-----9-9:-----7)--6)-*|-7)--9)-|
E|-5-5:-----7-7:-------------|-5)--7)-|


2nd part of Chorus:
//    G1               (play x4)
||    e|-----------------------|
||    B|-999999\---9999999:---*|
||    G|-----------------------|
||    D|-----------------------|
||    A|----------------------*|
||    E|-----------------------|
||    
||    G2               (play x4)
||    e|-----------------------|
||    B|----------------------*|
||    G|-9999:-9:--------------|
||    D|-9999:-9:--99\77/999:--|
||    A|-7777:-7:--99\77/999:-*|
\\    E|-----------77\55/777:--|


(Verse 2)
Bass fill
G|----------------
D|----------------
A|-7)-------------
E|-----4)--5)--7)-

G2 
e|----------------|
B|----------------|
G|-9)-------------|
D|-9)--6)--7)--9)-|
A|-7)--7)--7)--9)-|
E|-----4)--5)--7)-|
[ Tab from: http://www.guitartabs.cc/tabs/r/relient_k/mood_rings_tab.html ]
 b|------------|  b|--|
    e|-----------------7--7)--|
    B|-----------------10b12)-|
    G|-8b99999:9-9:9-9:-------|
    D|------------------------|
    A|------------------------|
    E|------------------------|

    e|-----------------------|
    B|-999999\---9999999:---*|
    G|-----------------------|
    D|-----------------------|
    A|----------------------*|
    E|-----------------------|



(Bridge)
G2                                      
e|-------------------------------------------|
B|------------------------------------------*|  x2
G|--99----------------99---------------------|
D|--9999xxxx771111999x9999xxxx771010101010x--|
A|--7799xxxx771111999x7799xxxx771010101010x-*|
E|----77xxxx559-9-777x--77xxxx558-8-8-8-8-x--|

e|-------------------------------------|
B|-------------------------------------|
G|-------------------------------------|
D|-6644----2266444-6644----2)--11-9--7-|
A|-7766----4477666-7766----4)--11-9--7-|
E|---77----55--777---77----5)--9--7--5-|

e|---------------------------------7-7\|
B|-----------------------9---9----7----|
G|-8----------------88---9---9------8--|
D|-9---6---6-----9-9-9---6---7---9-----|
A|-7---7---7----9-6--7-------0---------|
E|-----4---5---7-----------------------|

e|----------11--|
B|-----12-12----|
G|---11--8----8-|
D|--9---------9-|
A|------------7-|
E|--------------|


(Outro)
//                                                            1st   |2nd
||e|-------------------------------------------------------=--------|---
||B|9-----9-7-----7-5-----5-5-----5-5-----5-4-----4-2-----2=1-----1*|-1-
||G|---9---------------6-------5-------6-------4-------2---=---2----|-2-
||D|-----------9-------------------------------------------=--------|-2-
||A|-------------------------------------------------------=-------*|-3-
||E|-------------------------------------------------------=--------|---
||       play 1st ending, repeat, end with 2nd ending instead
||    
||    G2 (clean)                                                =  1st   |2nd
||e|--------------------------------------------------------=--------|---
||B|--------------------------------------------------------=-------*|---
||G|--------------------------------------------------------=--------|---
||D|---6---6---4---4---7---7---7---7---6---6---4---4--------=--------|---
||A|-7---7---6---6-------------------4---4-------------7---7=--7---7*|---
||E|-----------------5---5---8---8-----------7---7---5---5--=8---8---|-8-
\\

Thanks, please rate it after you've learned it.
Comments