Relient K - Maintain Consciousness Chords & Tabs

 

Maintain Consciousness Chords & Tabs

Relient K Chords & Tabs

Version: 1 Type: Tab 0 ratings
1 star 2 stars 3 stars 4 stars 5 stars
comments

Maintain Consciousness Tab

tab complete with lyrics that are underneath the correct measures but not
the correct notes/chords.  enjoy!

tuning: guitar 1 all flatted  guitar 2 all flatted and drop d

intro: guitar 1
eb-------------------------------------------------------------------->
Bb-------------------------------------------------------------------->
Gb---------2245454-----------------------2245454---------------------->
Db-5554-4--3355555-5554-4--22-44-5554-4--3355555-5554-4--22-44-------->
Ab-3335-5----------3335-5--33-55-3335-5----------3335-5--33-55-------->
Eb-------------------------------------------------------------------->

verse: guitar 2
eb-------------------------------------------------------------------->
Bb-------------------------------------------------------------------->
Gb-------------5xxxx------------------5xxxx-7xxxx--------------------->
Db-5xxxx-4xxxx-3xxxx-3xxxx-xxxx-4xxxx-3xxxx-5xxxx--------(voices)----->
Ab-3xxxx-5xxxx-------5xxxx-xxxx-5xxxx--------------------------------->
Db-------------------------------------------------------------------->
our concentration it contains a deadly flaw our conversations change from
words to blah, blah, blah we took prescription drugs and look how much good
that did
  guitar 2
eb------------------------------>
Bb------------------------------>
Gb-------------5xxxx-7~~-------->
Db-5xxxx-4xxxx-3xxxx-5~~-------->
Ab-3xxxx-5xxxx------------------>
Db------------------------------>
I think I had a point but I just got distracted

  guitar 2
eb-----------------------------------------------------------------5-3->
Bb-----------------------------------------------------------------6-3->
Gb-5555------5555------5555------5555------5555------5555------0-2----->
Db-5555-3333-5555-5555-5555-3333-5555-5555-5555-3333-5555-5555-2-3----->
Ab-3333-3333-3333-5555-3333-3333-3333-5555-3333-3333-3333-5555--------->
Db------3333------5555------3333------5555------3333------5555--------->
and lately it just seems to me that we've got the letters A.D.D. branded
into our mentality we simply cant focus on anything

  guitar 2
eb-------------------------------------------------------------------->
Bb-------------------------------------------------------------------->
Gb-55---5577---771010---101055---55---5577---77-------55-------------->
Db-55---5577---771010---101055---55---5577---7733---3355-------------->
Ab-33---3355---558-8----8-8-33---33---3355---5533---3333-------------->
Db---------------------------------------------33---33---------------->
because it's 17, 18, 19 routine and here at 23 it's the same old me and
that one thing of the moment that we all happen to like will only very
temporarily kinda break the cycle of the

repeat intro while singing:
double edge sword of being lazy and being bored we just want more and more
and more till its all we can afford

  guitar 2
eb-------------------------------------------------------------------->
Bb-------------------------------------------------------------------->
Gb-5~~-------5~~------------------------------------------------------>
Db-5~~--3~~--5~~--5~~--7~~--10\5~~--3xxxx-5xxxx----------------------->
Ab-3~~--3~~--3~~--5~~--7~~--10\5~~--3xxxx-5xxxx----------------------->
Db------3~~-------5~~--7~~--10\5~~--3xxxx-5xxxx----------------------->
to keep our eyes open for just one more day to keep on hoping that we'll
stumble on a way to keep our minds open for just one more day cuz it's
completely up to us to maintain consciousness
[ Tab from: http://www.guitartabs.cc/tabs/r/relient_k/maintain_consciousness_tab.html ]
  gutiar 2
eb-------------------------------------------------------------------->
Bb-------------------------------------------------------------------->
Gb---------2245454-----------------------2245454---------------------->
Db-5554-4--3355555-5554-4--22-44-5554-4--3355555-5554-4--22-77~~------>
Ab-3335-5----------3335-5--33-55-3335-5----------3335-5--33-77~~------>
Db----------------------------------------------------------77~~------>

solo: guitar 1
eb-------------------------------------------------------------->
Bb-------------------------------------------------------------->
Gb-------------------------------------------------------------->
Db-------------------------------------------------------------->
Ab-----3-5-7-----3-5-7-----3-5-7-----3-5-7-----3-5-7-----3-5-7-->
Eb-5-5-------5-5-------2-2-------2-2-------1-1-------1-1-------->

brace yourself... this is really fast (I don't even know if I got it right)
eb-------------------------------------------------------------------->
Bb-------0--0--------------------------------------------------------->
Gb-----55-25-202------------------------------------------------------>
Db---55---------2----------------------------------------------------->
Ab-33--------------357--357--357--357--357-3-5-7-3-3-33333------------>
Eb---------------55---55---22---22---11------------------------------->

  guitar 2
eb-------------------------------------------------------------------->
Bb-------------------------------------------------------------------->
Gb-----------------------------------------------5-5-55555------------>
Db---------------77--------44--------33----------5-5-55555------------>
Ab---------------77--------44--------33----------3-3-33333------------>
Db---------------77--------44--------33------------------------------->

bridge: guitar 2
eb-------------------------------------------------------------------->
Bb-------------------------------------------------------------------->
Gb-------------------------------------------------------------------->
Db-7777-4444-3333-1010-7777-4444-3~~---------------------------------->
Ab-7777-4444-3333-1010-7777-4444-3~~---------------------------------->
Db-7777-4444-3333-1010-7777-4444-3~~---------------------------------->
well no one can possibly listen to this  more than 4 reps is just
monotonous we're losing interest, losing interest, losing interest

because it's 17, 18, 19 routine and here at 23 it's the same old me and
that one thing of the moment that we all happen to like will only very
temporarily kinda break the cycle of the

repeat intro while singing:
double edge sword of being lazy and being bored we just want more and more
and more till its all we can afford

  guitar 2
eb------------------------------------------------------------------------->
Bb------------------------------------------------------------------------->
Gb-5~~-----5~~------------------------5~~-----5~~-------------------------->
Db-5~~-3~~-5~~-5~~-7~~-10\5~~-3~~-5~~-5~~-3~~-5~~-5~~-7~~-10\5~~-3xx5xx7xx->
Ab-3~~-3~~-3~~-5~~-7~~-10\5~~-3~~-5~~-3~~-3~~-3~~-5~~-7~~-10\5~~-3xx5xx7xx->
Db-----3~~-----5~~-7~~-10\5~~-3~~-5~~-----3~~-----5~~-7~~-10\5~~-3xx5xx7xx->
to keep our eyes open for just one more day to keep on hoping that we'll
stumble on a way to keep our minds open for just one more day cuz it's
completely up to us to maintain consciousness to keep our eyes open for
just one more day to keep on hoping that we'll stumble on a way to keep our
minds open for just one more day cuz it's completely up to us to maintain
consciousness

outro: guitar 1
eb--------------------------------------->
Bb--------------------------------------->
Gb----------2245454---------------------->
Db--5554-4--3355555-5554-4--22-77~~------>
Ab--3335-5----------3335-5--33-77~~------>
Eb-----------------------------55~~------>
Comments