Relient K - Maintain Consciousness Chords & Tabs

 

Maintain Consciousness Chords & Tabs

Relient K Chords & Tabs

Version: 1 Type: Bass Tab 0 ratings
1 star 2 stars 3 stars 4 stars 5 stars
comments

Maintain Consciousness Bass Tab

   
Intro
G|----------------------------------|
D|----------------------------------|
A|-2224-4----------2224-4-----------|
E|---------0000222---------00--22---|

Verse
G|----------------------------------|
D|----------------------------------|
A|-2-2-2-2-4-4-4-4---------2-2-2-2--|
E|-----------------0-0-0-0----------|

G|----------------------------------|
D|----------------------------------|
A|-2-2-2-2-4-4-4-4------------------|
E|-----------------0-0-0-0-2-2-2-2--|

G|----------------------------------|
D|----------------------------------|
A|----------------------------------|
E|----------------------------------|

G|----------------------------------|
D|----------------------------------|
A|-2-2-2-2-4-4-4-4------------------|
E|-----------------0-0-0-0-2~-------|

Chorus
G|----------------------------------|
D|----------------------------------|
A|-2222----2222----2222----2222-----|
E|-----0000----2222----0000----2222-|

G|-------------------------1111-----|
D|-----------------11112222----4444-|
A|-2222----2222---------------------|
E|-----0000----2222-----------------|

Post-Chorus x2
G|----------------------------------|
D|----------------------------------|
A|-2-----2-4-----4---------2--------|
E|-----------------0-----0----------|

Intro x2

Verse 2
G|----------------------------------|
D|----------------------------------|
A|-22222222--------22222222---------|
E|---------00000000--------33333333-|
[ Tab from: http://www.guitartabs.cc/tabs/r/relient_k/maintain_consciousness_btab.html ]
G|----------------------------------|
D|-----6----------------------------|
A|---------2222---------------------|
E|-4444-444----22220000000022222222-|

Bridge
G|----------------------------------|
D|----------------------------------|
A|-2224-4----------2224-4-----------|
E|---------0000222---------00--44~--|

Rest

Guitar Solo
G|----------------------------------|
D|----------------------------------|
A|-------------------------22222222-|
E|-44------11------00---------------|

G|----------------------------------|
D|----------------------------------|
A|-------------------------22222222-|
E|-444444441111111100000000---------|

G|----------------------------------|
D|----------------------------------|
A|----------------------------------|
E|-44444444111111110~---------------|

Rest

Intro x2

Verse 3
G|----------------------------------|
D|----------------------------------|
A|-22222222--------22222222---------|
E|---------00000000--------33333333-|

G|----------------------------------|
D|-----6----------------------------|
A|---------2222---------------------|
E|-4444-444----22220000000022222222-|

G|----------------------------------|
D|----------------------------------|
A|-22222222--------22222222---------|
E|---------00000000--------33333333-|

G|----------------------------------|
D|-----6----------------------------|
A|---------2222---------------------|
E|-4444-444----22220000000022222222-|

G|------------------|
D|------------------|
A|------------------|
E|-3333333333333333-|

Outro
G|----------------------------------|
D|----------------------------------|
A|-2224-4----------2224-4-----------|
E|---------0000222---------00--44~--|
Comments