Relient K - I So Hate Consequences Chords & Tabs

 

I So Hate Consequences Chords & Tabs

Relient K Chords & Tabs

Version: 2 Type: Tab 0 ratings
1 star 2 stars 3 stars 4 stars 5 stars
comments

I So Hate Consequences Tab

----------------------------------------------------------------------
		I SO HATE CONSEQUENCES - Relient K
----------------------------------------------------------------------

Tabbed by: Stephen Adams
Email: bigsteve0788@aol.com

Tuning: Standard
*:Palm mute 


Intro:
e|---------------------------------------------------------------|
B|---------------------------------------------------------------|
G|-13-----------101010101010-888888-666666-555555----------------|
D|-x--alot------x-x-x-x-x-x--xxxxxx-xxxxxx-xxxxxx----------------|x2
A|-11-----------8-8-8-8-8-8--666666-444444-333333----------------|
E|---------------------------------------------------------------|


Intro Cont:
e|---------------------------------------------------------------|
B|---------------------------------------------------------------|
G|-66-5-6-5-6-5-66-5-66-5-6-5-6-5-66-5-6-------------------------|
D|-xx-x-x-x-x-x-xx-x-xx-x-x-x-x-x-xx-x-x-------------------------|
A|-44-3-4-3-4-3-44-3-44-3-4-3-4-3-44-3-4-------------------------|
E|---------------------------------------------------------------|


Verse:
e|---------------------------------------------------------------|
B|---------------------------------------------------------------|
G|-6-66666666666-----------------------------6-66666-------------|
D|-6-66666666666-8-88888888888-4-44444444444-6-66666-6-66666-----|
A|-4-44444444444-8-88888888888-4-44444444444-4-44444-6-66666-----|
E|---------------6-66666666666-2-22222222222---------4-44444-----|
     ***********   ***********   ***********   *****   *****


Verse Cont:
e|---------------------------------------------------------------|
B|---------------------------------------------------------------|
G|-666666666666----------------------------666666----------------|
D|-666666666666-888888888888-444444444444--666666-666666---------|
A|-444444444444-888888888888-444444444444--444444-666666---------|
E|--------------666666666666-222222222222---------444444---------|


Pre Chorus:
e|---------------------------------------------------------------|
B|---------------------------------------------------------------|
G|-----------------6~--------------------------------------------|
D|-8-8-8-8--666666-6~--------------------------------------------|
A|-8-8-8-8--666666-4~--------------------------------------------|
E|-6-6-6-6--444444-----------------------------------------------|
            ******

Chorus:
e|---------------------------------------------------------------|
B|---------------------------------------------------------------|
G|----------66666666---------------------------------------------|
D|-44444444-66666666-88888888-66666666---------------------------|x3
A|-44444444-44444444-88888888-66666666---------------------------|
E|-22222222----------66666666-44444444---------------------------|

[ Tab from: http://www.guitartabs.cc/tabs/r/relient_k/i_so_hate_consequences_tab_ver_2.html ]
Chorus Cont:
e|---------------------------------------------------------------|
B|---------------------------------------------------------------|
G|--------------666666666666-------------------------------------|
D|-444444444444-666666666666-------------------------------------|
A|-444444444444-444444444444-------------------------------------|
E|-222222222222--------------------------------------------------|
   ************ ************

2nd Verse:
e|---------------------------------------------------------------|
B|---------------------------------------------------------------|
G|-666666666666----------------------------666666----------------|
D|-666666666666-888888888888-444444444444--666666-666666---------|
A|-444444444444-888888888888-444444444444--444444-666666---------|
E|--------------666666666666-222222222222---------444444---------|


2nd Verse Cont:
e|---------------------------------------------------------------|
B|-----6~---6~----6~---6~--6~---6~--6~---------------------------|
G|----6----6-----6----6---6----6---6----6~-----------------------|
D|--------------------------------------6~-----------------------|
A|-4-----------------4------------------4~-----------------------|
E|------6------2---------4---6---4-------------------------------|


Interlude:
e|---------------------------------------------------------------|
B|---------------------------------------------------------------|
G|-6~------------101010-101010-131313-131313-666-666-666-666-----|
D|-6~-4~-8~-6~---x-x-x--x-x-x--x-x-x-x-x-x--xxx-xxx-xxx-xxx-----|
A|-4~-4~-8~-6~---8-8-8--8-8-8--111111-111111-444-444-444-444-----|
E|----2~-6~-4~---------------------------------------------------|


Interlude Cont:
e|----------------|----------------------------------------------|
B|----------------|----------------------------------------------|
G|----6~------6~--|--6--6--6--6----------------------------------|
D|-4~-6~-8-66-6~--|---6--6--6--6--alot---------------------------|
A|-4~-4~-8-66-4~--|----4--4--4--4--------------------------------|
E|-2~----6-44-----|----------------------------------------------|
           **

Before Piano Part: (And when the doors were closed...)
e|---------------------------------------------------------------|
B|---------------------------------------------------------------|
G|----------------------------6~---------------------------------|
D|-444444444444-888888-666666-6~---------------------------------|
A|-444444444444-888888-666666-4~---------------------------------|
E|-222222222222-666666-444444------------------------------------|
   ************ ****** ******

End with:
e|---------------------------------------------------------------|
B|---------------------------------------------------------------|
G|-------------------------------------6~------6~----------------|
D|-444-444-666-666-888-888-888-888-4~-6~-8-66-6~----------------|
A|-444-444-666-666-888-888-888-888-4~-4~-8-66-4~----------------|
E|-222-222-444-444-666-666-666-666-2~----6-44-------------------|
                                            **

Order

Intro 
Verse 
Prechorus 
Chorus 
Intro 
2nd Verse
Chorus
Interlude 
Before Piano 
End part

This is an awesome song. It's pretty easy. Have fun.
Comments