Relient K - I So Hate Consequences Chords & Tabs

 

I So Hate Consequences Chords & Tabs

Relient K Chords & Tabs

Version: 1 Type: Bass Tab 0 ratings
1 star 2 stars 3 stars 4 stars 5 stars
comments

I So Hate Consequences Bass Tab

Intro:

G|--------------------------------------------------------------------|
D---------------------------------------------------------------------|x2
A|-11 ( 16*)-------8-8-8-8-8-8--666666-444444-333333------------------|
E|--------------------------------------------------------------------|


Intro Cont:
( This is what the gutiar plays, but I findi t more fun than the bass line, the bass 
playing the intro...)

G|-----------------------------------------------------------------|
D|-----------------------------------------------------------------|
A|-44-3-4-3-4-3-44-3-44-3-4-3-4-3-44-3-4---------------------------|
E|-----------------------------------------------------------------|


Verse:

G|-----------------------------------------------------------------|
D|-----------------------------------------------------------------|
A|-4-44444444444-----------------------------4-44444---------------|x2
|---------------6-66666666666-2-22222222222---------4-44444--------|


Pre Chorus:

G|------------------------------------------------------------------|
D|------------------------------------------------------------------|
A|------------------4~----------------------------------------------|
E|-6-6-6-6--444444--------------------------------------------------|

[ Tab from: http://www.guitartabs.cc/tabs/r/relient_k/i_so_hate_consequences_btab.html ]
Chorus:
e|---------------------------------------------------------------|
B|---------------------------------------------------------------|
G|---------------------------------------------------------------|
D|---------------------------------------------------------------|x3
A|----------44444444---------------------------------------------|
E|-22222222----------66666666-44444444---------------------------|


Chorus Cont:
e|---------------------------------------------------------------|
B|---------------------------------------------------------------|
G|---------------------------------------------------------------|
D|---------------------------------------------------------------|
A|--------------444444444444-------------------------------------|
E|-222222222222--------------------------------------------------|

Verse 2
G|-----------------------------------------------------------------|
D|-----------------------------------------------------------------|
A|-4-44444444444-----------------------------4-44444---------------|
|---------------6-66666666666-2-22222222222---------4-44444--------|


2nd Verse Cont:

G|-----------------------------------------------------------------|
D|-----------------------------------------------------------------|
A|-4-----------------4------------------4~-------------------------|
E|------6------2---------4---6---4---------------------------------|

I didnt tab out the interlude cuz I'm really lazy and tabbing is a lot of work and
really boring to type so I'll probably have it up in like 2 weeks.
Let me know if I meesed up or anythingcause this is my first tab.
Comments