Relient K - I Love The 80s Chords & Tabs

 

I Love The 80s Chords & Tabs

Relient K Chords & Tabs

Version: 1 Type: Tab 2 ratings
1 star 2 stars 3 stars 4 stars 5 stars
comments

I Love The 80s Tab

Band:Relient k
song:pink tux to the prom
album:employee of the month
tabbed by:i_am_a_bannana@yoahoo.com

   X^:stroke as many times as needed
   ^:stroke
   x:mute     
   r:let ring
[ Tab from: http://www.guitartabs.cc/tabs/r/relient_k/i_love_the_80s_tab.html ]
         Intro
        e---5---5--3---3--3---3--6--5--3------
        B-----6------5------3-----------------
        G-------------------------------------
        D-------------------------------------
        A-------------------------------------
        E-------------------------------------
          verse
        e-------------------------------------
        B-------------------------------------
        G---------xx10xxx---------------------
        D---------xx10xxx---------------------
        A---------xx8xxxx---------------------
        E-------------------------------------
         chorus:
        e------------------------------
        B------------------------------
        G---10-------------------------
        D---10x^---10------12-----8----
        A---8------10-x^---12-x^--8x^--
        E----------8---- --10-----6----
          verse and intro
                  
           chorus
        e----------------------------------------------------
        B----------------------------------------------------
        G---10-----------------------------------------------
        D---10--10--12--8---------12-----8-----12-----10-----
        A---8---10--12--8--end w/-12-x^--8-x^--12-x^--10-x^--
        E-------8---10--6---------10-----6-----10-----8------
          repeat verse 

          bridge
        e----------------------------------------------------
        B----------------------------------------------------
        G---10^-^-^-^----------------------------------------
        D---10^-^-^-^--10------12------8---------------------
        A---8^-^-^-^---10-x^---12-x^---8-x^------------------
        E--------------8-------10------6---------------------
    
          while the part on the top is playing the other guitar does this
        which is the solo.
          
         solo:
       e-----------------------------------------------------------------------
       B----------6-5----------------------------6-5--888-10p8~6r--8-10p8-8-6r-
       G--------5-----555-7p5-5----------------5-------------------------------
       D------7--------------------5--7-5----7---------------------------------
       A----8--------------------8---------8-----------------------------------
       E-----------------------------------------------------------------------
 
        Verse 2x and finish w/ this each time
        e-----------------------
        B-----------------------
        G---10r-----------------
        D---10r--8r-------------
        A---8r---8r-------------
        E--------6r-------------

        bridge w/ the solo
 
          verse:during the verse comes the solo
Comments