Relient K - High Of 75 Chords & Tabs

 

High Of 75 Chords & Tabs

Relient K Chords & Tabs

Version: 2 Type: Tab 0 ratings
1 star 2 stars 3 stars 4 stars 5 stars
comments

High Of 75 Tab

   
Song: High of 75
Band: Relient K
Album: Mmhmm


(Eb-Ab-Db-Gb-Bb-Eb)

. = palm muted
~ = let ring

Intro: Acoustic
Eb|-------------------------        Eb|----------|
Bb|-------------------------        Bb|----------|
Gb|---10-10-10-10\9-9-9-9---    x6  Gb|--10~-----|
Db|---10-10-10-10\9-9-9-9---        Db|--10~-----|
Ab|---8--8--8--8-\7-7-7-7---        Ab|--8~------|
Eb|-------------------------        Eb|----------|


Main Riff: 1st guitar
Eb|----------------------------------------|
Bb|---6-6-6-6--5-5-5-5--8-8-8-8--5-5-5-5---|
Gb|---5-5-5-5--5-5-5-5--5-5-5-5--5-5-5-5---|	x4
Db|----------------------------------------|
Ab|----------------------------------------|
Eb|----------------------------------------|


2nd guitar
Eb|-----------------------------------------------------------------------|
Bb|-----------------------------------------------------------------------|
Gb|---5-5-5-5-5-5-5-5-5-5-5-5-5-5-5-5-------------------------------------|
Db|---5-5-5-5-5-5-5-5-5-5-5-5-5-5-5-5--3-3-3-3-3-3-3-3-3-3-3-3-3-3-3-3----|
Ab|---3-3-3-3-3-3-3-3-3-3-3-3-3-3-3-3--3-3-3-3-3-3-3-3-3-3-3-3-3-3-3-3----|
Eb|------------------------------------1-1-1-1-1-1-1-1-1-1-1-1-1-1-1-1----|

Eb|-----------------------------------------------------------------------|
Bb|-----------------------------------------------------------------------|
Gb|-----------------------------------------------------------------------|
Db|---7-7-7-7-7-7-7-7--5-5-5-5-5-5-5-5--3-3-3-3-3-3-3-3-3-3-3-3-3-3-3-3---|
Ab|---7-7-7-7-7-7-7-7--5-5-5-5-5-5-5-5--3-3-3-3-3-3-3-3-3-3-3-3-3-3-3-3---|
Eb|---5-5-5-5-5-5-5-5--3-3-3-3-3-3-3-3--1-1-1-1-1-1-1-1-1-1-1-1-1-1-1-1---|


Verse:

Play the main riff x4 (1st guitar)

[ Tab from: http://www.guitartabs.cc/tabs/r/relient_k/high_of_75_tab_ver_2.html ]
Both guitars
Eb|----------------------------------------------------------------------|
Bb|----------------------------------------------------------------------|
Gb|---5-5-5-5-5-5-5-5-5-5-5-5-5-5-5-5------------------------------------|
Db|---5-5-5-5-5-5-5-5-5-5-5-5-5-5-5-5--3-3-3-3-3-3-3-3-3-3-3-3-3-3-3-3---|
Ab|---3-3-3-3-3-3-3-3-3-3-3-3-3-3-3-3--3-3-3-3-3-3-3-3-3-3-3-3-3-3-3-3---|
Eb|------------------------------------1-1-1-1-1-1-1-1-1-1-1-1-1-1-1-1---|
      . . . .				   . . . . . . . . . . . . . .

Eb|----------------------------------------------------------------------|
Bb|----------------------------------------------------------------------|
Gb|----------------------------------------------------------------------|
Db|---7-7-7-7-7-7-7-7--5-5-5-5-5-5-5-5--3-3-3-3-3-3-3-3-3-3-3-3-3-3-3-3--|
Ab|---7-7-7-7-7-7-7-7--5-5-5-5-5-5-5-5--3-3-3-3-3-3-3-3-3-3-3-3-3-3-3-3--|
Eb|---5-5-5-5-5-5-5-5--3-3-3-3-3-3-3-3--1-1-1-1-1-1-1-1-1-1-1-1-1-1-1-1--|


Prechorus: Both guitar
Eb|-------------------------------------------------------------|
Bb|-------------------------------------------------------------|
Gb|-------------------------------------------------------------|	x2
Db|---2-2--5-5--2-2--3-3---2-2-2-2--5-5-5-5--2-2-2-2--3-3-3-3---|
Ab|---2-2--5-5--2-2--3-3---2-2-2-2--5-5-5-5--2-2-2-2--3-3-3-3---|
Eb|---0-0--3-3--0-0--1-1---0-0-0-0--3-3-3-3--0-0-0-0--1-1-1-1---|
			   . . . .  . . . .  . . . .  . . . .

Chorus: No guitar, just piano


REPEAT MAIN RIFF x2
REPEAT VERSE (Main riff x4)
REPEAT PRECHORUS (x2)

After there is another piano part during the chorus. (First time through)


Chorus 2: Both guitars
Eb|--------------------------------------------------------------------------|
Bb|--------------------------------------------------------------------------|
Gb|---5-5-5-5----------------------------------------------------------------|
Db|---5-5-5-5--3-3-3-3--7-7-7-7--5-5-5-5--2-2-2-2--3-3-3-3--2-2-2-2--5-5-5-5-|
Ab|---3-3-3-3--3-3-3-3--7-7-7-7--5-5-5-5--2-2-2-2--3-3-3-3--2-2-2-2--5-5-5-5-|
Eb|------------1-1-1-1--5-5-5-5--3-3-3-3--0-0-0-0--1-1-1-1--0-0-0-0--3-3-3-3-|

Eb|---------------------------------------------------------|
Bb|---------------------------------------------------------|
Gb|---5-5-5-5-----------------------------------------------|
Db|---5-5-5-5--3-3-3-3--7-7-7-7--5-5-5-5--2-2-2-2--5-5-5-5--|
Ab|---3-3-3-3--3-3-3-3--7-7-7-7--5-5-5-5--2-2-2-2--5-5-5-5--|
Eb|------------1-1-1-1--5-5-5-5--3-3-3-3--0-0-0-0--3-3-3-3--|


YOYOYO, there it is, it is my favorite song on th CD, hope its not to hard for you all, 
quite easy once you get it. Have Fun and Enjoy
Comments