Relient K - Gibberish Chords & Tabs

 

Gibberish Chords & Tabs

Relient K Chords & Tabs

Version: 2 Type: Tab 0 ratings
1 star 2 stars 3 stars 4 stars 5 stars
comments

Gibberish Tab

   
Gibberish
Relient K
Tabbed by mericlepunk

Intro:(X1)
e--------------------------------------------------------------------------|
B--------------------------------------------------------------------------|
G---7-7------5-5---------------------------5-5-5-5-5-5-5-5-5-5-5-5-5-5-5-5-|
D-7-7-7--5-5-5-3--7-7-8-8--5-5-5-5-5-5-5-5-5-5-5-5-5-5-5-5-5-5-5-5-5-5-5-5-|
A-7-5-5--5-5-3-3--7-7-8-8--5-5-5-5-5-5-5-5-3-3-3-3-3-3-3-3-3-3-3-3-3-3-3-3-|
E-5------3-3------5-5-6-6--3-3-3-3-3-3-3-3---------------------------------|

Verse (X3)
e-------------------------|
B-------------------------|
G-5-5-5-------5-5-5-------|
D-5-5-3-3-3-3-5-5-5-5-5-5-|
A-3-3-3-3-3-3-3-3-3-5-5-5-|
E-------1-1-1-------3-3-3-|
  x x   x x   x x   x x

Verse (X1)
e-----------------------------------------------------------------------------|
B-----------------------------------------------------------------------------|
G-5-5-5-----------------------------------------------------------------------|
D-5-5-5-3-3-3-7-7-7-7-7-7-7-7-5-5-5-5-5-5-5-5-3-3-3-3-3-3-3-3-5-5-5-5-5-5-5-5-|
A-3-3-3-3-3-3-7-7-7-7-7-7-7-7-5-5-5-5-5-5-5-5-3-3-3-3-3-3-3-3-5-5-5-5-5-5-5-5-|
E-------1-1-1-5-5-5-5-5-5-5-5-3-3-3-3-3-3-3-3-1-1-1-1-1-1-1-1-3-3-3-3-3-3-3-3-|
  x x   x x   x x x x x x x x x x x x x x x x x x x x x x x x x x x x x x x x

Pre-Chorus (X1)
e---------------------------------------------|
B---------------------------------------------|
G-5-5-5-5-5-5-------------5-5-5-5-5-5---------|
D-5-5-5-5-5-5-2-2-2-3-3-3-5-5-5-5-5-5-2-2-2-3-|
A-3-3-3-3-3-3-2-2-2-3-3-3-3-3-3-3-3-3-2-2-2-3-|
E-------------0-0-0-1-1-1-------------0-0-0-1-|
  x x   x x   x x   x x   x x   x x   x x

Chorus (X4)
e---------------------------------|
B---------------------------------|
G-5-5-5-3-3-3-3-------------------|
D-5-5-5-3-3-3-3-3-3-3-3-5-5-5-5-x-|
A-3-3-3-1-1-1-1-3-3-3-3-5-5-5-5-x-|
E---------------1-1-1-1-3-3-3-3-x-|

Interlude (X1)

e---------------|
B---------------|
G-5-(let ring)--
D-5-------------|
A-3-------------|
E---------------|
[ Tab from: http://www.guitartabs.cc/tabs/r/relient_k/gibberish_tab_ver_2.html ]
Interlude (X2)
e-----------------------------------|
B-----------------------------------|
G-5-5-5-5-5-5-5-5-------------------|
D-5-5-5-5-5-5-5-5-3-3-3-3-5-5-5-5---|
A-3-3-3-3-3-3-3-3-3-3-3-3-5-5-5-5---|
E-----------------1-1-1-1-3-3-3-3---|
  x x x x x x x x x x x x x x x x

Interlude (X1)
e-------------------------|
B-------------------------|
G-------------------------|
D-7-7-7-5-5-5-3-3-3-5-5-5-|
A-7-7-7-5-5-5-3-3-3-5-5-5-|
E-5-5-5-3-3-3-1-1-1-3-3-3-|
  x x   x x   x x   x x

Verse (X3)
e-------------------------|
B-------------------------|
G-5-5-5-------5-5-5-------|
D-5-5-3-3-3-3-5-5-5-5-5-5-|
A-3-3-3-3-3-3-3-3-3-5-5-5-|
E-------1-1-1-------3-3-3-|
  x x   x x   x x   x x

Verse (X1)
e---------------------------------------------------------------------------|
B---------------------------------------------------------------------------|
G-5-5-5---------------------------------------------------------------------|
D-5-5-5-3-3-3-7-7-7-7-7-7-7-7-5-5-5-5-5-5-5-5-3-3-3-3-3-3-3-3-5-5-5-5-5-5-5-|
A-3-3-3-3-3-3-7-7-7-7-7-7-7-7-5-5-5-5-5-5-5-5-3-3-3-3-3-3-3-3-5-5-5-5-5-5-5-|
E-------1-1-1-5-5-5-5-5-5-5-5-3-3-3-3-3-3-3-3-1-1-1-1-1-1-1-1-3-3-3-3-3-3-3-|
  x x   x x   x x x x x x x x x x x x x x x x x x x x x x x x x x x x x x x


Chorus (X4)
e---------------------------------|
B---------------------------------|
G-5-5-5-3-3-3-3-------------------|
D-5-5-5-3-3-3-3-3-3-3-3-5-5-5-5-x-|
A-3-3-3-1-1-1-1-3-3-3-3-5-5-5-5-x-|
E---------------1-1-1-1-3-3-3-3-x-|

Interlude (X1)

e---------------|
B---------------|
G-5-(let ring)--
D-5-------------|
A-3-------------|
E---------------|

Outro (X2)
e-----------------------------------|
B-----------------------------------|
G-5-5-5-5-5-5-5-5-------------------|
D-5-5-5-5-5-5-5-5-3-3-3-3-5-5-5-5---|
A-3-3-3-3-3-3-3-3-3-3-3-3-5-5-5-5---|
E-----------------1-1-1-1-3-3-3-3---|
  x x x x x x x x x x x x x x x x

Outro (X1)
e-------------------------|
B-------------------------|
G-------------------------|
D-7-7-7-5-5-5-3-3-3-5-5-5-|
A-7-7-7-5-5-5-3-3-3-5-5-5-|
E-5-5-5-3-3-3-1-1-1-3-3-3-|
  x x   x x   x x   x x
Comments