Relient K - Getting Into You Chords & Tabs

 

Getting Into You Chords & Tabs

Relient K Chords & Tabs

Version: 5 Type: Tab 0 ratings
1 star 2 stars 3 stars 4 stars 5 stars
comments

Getting Into You Tab

   
Getting Into You - Relient K
-------------------------------------------------------------------------------
Tabbed by:Danny B
Email:paintballking765@juno.com

Tuning:Standard

The Intro is Picking, Then the chords come in, have questions or comments let me know, 
fun!

[ Tab from: http://www.guitartabs.cc/tabs/r/relient_k/getting_into_you_tab_ver_5.html ]
e|---------------------------------------------------------------------------|
B|---------------------------------------------------------------------------|
G|--------4------------4--------------4--------------------------------------|
D|----------6-------------6--------3-----6-----------------------------------|
A|------2----------2---------------------------------------------------------|
E|----o---------2---------------5------------2-------------------------------|

e|---------------------------------------------------------------------------|
B|---------------------------------------------------------------------------|
G|--------4------------4--------------4-----------4---2----1-----------------|
D|----------6-------------6--------3-----6-----------------------------------|
A|------2----------2---------------------------------------------------------|
E|----o---------2---------------5------------2-------------------0-----------|

                                     Verse 1
                                    (chords)

                  Em  B  F#  A

  It eventually turns into electric guitar. The rest of the song is just verse 1 and the 
mixed throughout.
Comments