Relient K - Getting Into You Chords & Tabs

 

Getting Into You Chords & Tabs

Relient K Chords & Tabs

Version: 1 Type: Bass Tab 0 ratings
1 star 2 stars 3 stars 4 stars 5 stars
comments

Getting Into You Bass Tab

Artist:Relient k

Difficulty:Easy/Beginer

Title:Getting into

Album: Two left dont make a right but three do.

This is a beutiful song by relient k u got to love them.Nice song for a starting band pretty easy. have fun

Verses:
[ Tab from: http://www.guitartabs.cc/tabs/r/relient_k/getting_into_you_btab.html ]
|----------------------------------|
|----------------------------------|
|--------0-------------------------|
|--0--2-----2----------------------|

Chorus:

|----------------------------------|
|----------------------------------|
|-----2-----0----------------------|
|--0-----2-------------------------|

God Bless

James.W.Stubbs

Forum name:jstubbs
Comments