Relient K - Falling Out Chords & Tabs

 

Falling Out Chords & Tabs

Relient K Chords & Tabs

Version: 5 Type: Tab 0 ratings
1 star 2 stars 3 stars 4 stars 5 stars
comments

Falling Out Tab

   
Tabbed by:Danny B
Email: Paintballking765@juno.com

     This is pretty acurate, and if its not let me know.

Tuning: Standard

   (Intro)
e|---------------------------------------------------------------------------|
B|----3-----3------3-------3-------4------4------4-------4-------------------|
G|-------3-----3-------3-------3-------3-----3-------3-------3---------------|
D|---------------------------------------------------------------------------|
A|---------------------------------------------------------------------------|
E|---------------------------------------------------------------------------|

e|----------------------------------------------------------------------------|
B|----3-----3------3-------3------1------1------1-------1---------------------|
G|-------3-----3-------3------3------2------2-------2-------2-----------------|
D|----------------------------------------------------------------------------|
A|----------------------------------------------------------------------------|
E|----------------------------------------------------------------------------|

    Verse 1

e|---------------------------------------------------------------------------|
B|---------------------------------------------------------------------------|
G|---33333333-----55555555----88888888---------------------------------------|
D|---33333333-----55555555----88888888-----5555------3333----------(4x)------|
A|---11111111-----33333333----66666666-----5555------3333--------------------|
E|-----------------------------------------3333------1111--------------------|
       A#           C5          D#          G5        F5
[ Tab from: http://www.guitartabs.cc/tabs/r/relient_k/falling_out_tab_ver_5.html ]
e|---------------------------------------------------------------------------|
B|---------------------------------------------------------------------------|
G|---77---- 77------88---- 88-----33333333----55555555-------------(2x)------|
D|---77--~--77------88--~--88-----33333333----55555555-----------------------|
A|---55---- 55------66---- 66-----11111111----33333333-----------------------|
E|---------------------------------------------------------------------------|
        D5              D#          A#          C5


       Verse 2 same as verse 1


                                               1                 2
     Bridge   1:37                       ---------------] --------------------|
e|------------------------------------------------------]---------------------|
B|------------------------------------------------------]---------------------|
G|---33333333-----55555555------------------------------]---------------------|
D|---33333333-----55555555----55555555------33333333----]---------------------|
A|---11111111-----33333333----55555555------33333333----]--333--333--333------|
E|----------------------------33333333------11111111----]--111--111--111------|
       A#           C5           G5            F5               F5

                                   Play twice and 2nd time play 2nd ending.


       2:09   At this part its the piano playing, after that this is   played but im not sure.

        G#   G   A#   A   C

     The rest of the song you can find scattered throught the song.

  E-mail me questions and comments.
Comments