Relient K - Falling Out Chords & Tabs

 

Falling Out Chords & Tabs

Relient K Chords & Tabs

Version: 1 Type: Tab 3 ratings
1 star 2 stars 3 stars 4 stars 5 stars
comments

Falling Out Tab

   
Artist: Relient K
Song: Falling Out (#3)
Album: Two Lefts Don't Make a Right, but Three Do

Not sure about the first 9 seconds of the song

0:09
Play that two times

Verse
0:25
D:8-8-8-8-8-8-8-8-10-10-10-10-10-10-10-10-13-13-13-13-13-13-13-13-8-8-8-8-6-6-6-6
A:8-8-8-8-8-8-8-8-10-10-10-10-10-10-10-10-13-13-13-13-13-13-13-13-8-8-8-8-6-6-6-6
E:6-6-6-6-6-6-6-6-8--8--8--8--8--8--8--8--11-11-11-11-11-11-11-11-6-6-6-6-4-4-4-4
  . . . . . . . . .  .  .  .  .  .  .  .  .  .  .  .  .  .  .  .  . . . . . . . .
.=PM
Play that two times

Pre-Chorus 0:41
        Face down...
D:8-8---8-8---10-10-10-10-10-10-10-10-8-8-8-8-8-8-8-8-6-6-6-6-6-6-6-6
A:8-8---8-8---10-10-10-10-10-10-10-10-8-8-8-8-8-8-8-8-6-6-6-6-6-6-6-6
E:6-6---6-6---8--8--8--8--8--8--8--8--6-6-6-6-6-6-6-6-4-4-4-4-4-4-4-4
Play that 2 times, then it goes straight into the intro again

Bridge 0:56
D:8-8-8-8-8-8-8-8-10-10-10-10-10-10-10-10-13-13-13-13-13-13-13-13-8-8-8-8-6-6-6-6
A:8-8-8-8-8-8-8-8-10-10-10-10-10-10-10-10-13-13-13-13-13-13-13-13-8-8-8-8-6-6-6-6
E:6-6-6-6-6-6-6-6-8--8--8--8--8--8--8--8--11-11-11-11-11-11-11-11-6-6-6-6-4-4-4-4
make sure you only play it once instead of twice

Verse
1:04
D:8-8-8-8-8-8-8-8-10-10-10-10-10-10-10-10-13-13-13-13-13-13-13-13-8-8-8-8-6-6-6-6
A:8-8-8-8-8-8-8-8-10-10-10-10-10-10-10-10-13-13-13-13-13-13-13-13-8-8-8-8-6-6-6-6
E:6-6-6-6-6-6-6-6-8--8--8--8--8--8--8--8--11-11-11-11-11-11-11-11-6-6-6-6-4-4-4-4
  . . . . . . . . .  .  .  .  .  .  .  .  .  .  .  .  .  .  .  .  . . . . . . . .
.=PM
Play that two times

Pre-Chorus 1:20
        Face down...
D:8-8---8-8---10-10-10-10-10-10-10-10-8-8-8-8-8-8-8-8-6-6-6-6-6-6-6-6
A:8-8---8-8---10-10-10-10-10-10-10-10-8-8-8-8-8-8-8-8-6-6-6-6-6-6-6-6
E:6-6---6-6---8--8--8--8--8--8--8--8--6-6-6-6-6-6-6-6-4-4-4-4-4-4-4-4
play it twice, then there is a short silence while he says "bandaid"

Chorus 1:37
D:8-8-8-8-8-8-8-8-8-8-8-8-8-8-8-8-10-10-10-10-10-10-10-10-10-10-10-10-10-10-10-10
A:8-8-8-8-8-8-8-8-8-8-8-8-8-8-8-8-10-10-10-10-10-10-10-10-10-10-10-10-10-10-10-10
E:6-6-6-6-6-6-6-6-6-6-6-6-6-6-6-6-8--8--8--8--8--8--8--8--8--8--8--8--8--8--8--8

D;5-5-5-5-5-5-5-5-5-5-5-5-5-5-5-5-6-6-6-6-6-6-6-6-6-6-6-6-6-6-6-6
A:5-5-5-5-5-5-5-5-5-5-5-5-5-5-5-5-6-6-6-6-6-6-6-6-6-6-6-6-6-6-6-6
E:3-3-3-3-3-3-3-3-3-3-3-3-3-3-3-3-4-4-4-4-4-4-4-4-4-4-4-4-4-4-4-4

Chorus Pt. 2 1:52
[ Tab from: http://www.guitartabs.cc/tabs/r/relient_k/falling_out_tab.html ]
D:8-8-8-8-8-8-8-8-8-8-8-8-8-8-8-8-10-10-10-10-10-10-10-10-10-10-10-10-10-10-10-10
A:8-8-8-8-8-8-8-8-8-8-8-8-8-8-8-8-10-10-10-10-10-10-10-10-10-10-10-10-10-10-10-10
E:6-6-6-6-6-6-6-6-6-6-6-6-6-6-6-6-8--8--8--8--8--8--8--8--8--8--8--8--8--8--8--8
                                  Fallin out fallin out...
D;5-5-5-5-5-5-5-5-5-5-5-5-5-5-5---6-6-6------6-6-6------6-6-6------6-6-6
A:5-5-5-5-5-5-5-5-5-5-5-5-5-5-5---6-6-6------6-6-6------6-6-6------6-6-6
E:3-3-3-3-3-3-3-3-3-3-3-3-3-3-3---4-4-4------4-4-4------4-4-4------4-4-4
                                                                   . . .
Bridge with piano and drums 2:07

I can't quite figure out the part that goes "i wont think twice..."
but i am working on it.

Pre-Chorus 2:40
        Face down...
D:8-8---8-8---10-10-10-10-10-10-10-10-8-8-8-8-8-8-8-8-6-6-6-6-6-6-6-6
A:8-8---8-8---10-10-10-10-10-10-10-10-8-8-8-8-8-8-8-8-6-6-6-6-6-6-6-6
E:6-6---6-6---8--8--8--8--8--8--8--8--6-6-6-6-6-6-6-6-4-4-4-4-4-4-4-4
  . .   . .
play it twice, then there is a short silence while he says "bandaid"



Chorus 2:56
D:8-8-8-8-8-8-8-8-8-8-8-8-8-8-8-8-10-10-10-10-10-10-10-10-10-10-10-10-10-10-10-10
A:8-8-8-8-8-8-8-8-8-8-8-8-8-8-8-8-10-10-10-10-10-10-10-10-10-10-10-10-10-10-10-10
E:6-6-6-6-6-6-6-6-6-6-6-6-6-6-6-6-8--8--8--8--8--8--8--8--8--8--8--8--8--8--8--8

D;5-5-5-5-5-5-5-5-5-5-5-5-5-5-5-5-6-6-6-6-6-6-6-6-6-6-6-6-6-6-6-6
A:5-5-5-5-5-5-5-5-5-5-5-5-5-5-5-5-6-6-6-6-6-6-6-6-6-6-6-6-6-6-6-6
E:3-3-3-3-3-3-3-3-3-3-3-3-3-3-3-3-4-4-4-4-4-4-4-4-4-4-4-4-4-4-4-4

Chorus Pt. 2 3:12

D:8-8-8-8-8-8-8-8-8-8-8-8-8-8-8-8-10-10-10-10-10-10-10-10-10-10-10-10-10-10-10-10
A:8-8-8-8-8-8-8-8-8-8-8-8-8-8-8-8-10-10-10-10-10-10-10-10-10-10-10-10-10-10-10-10
E:6-6-6-6-6-6-6-6-6-6-6-6-6-6-6-6-8--8--8--8--8--8--8--8--8--8--8--8--8--8--8--8
                                  Fallin out fallin out...
D;5-5-5-5-5-5-5-5-5-5-5-5-5-5-5---6-6-6------6-6-6------6-6-6------6-6-6
A:5-5-5-5-5-5-5-5-5-5-5-5-5-5-5---6-6-6------6-6-6------6-6-6------6-6-6
E:3-3-3-3-3-3-3-3-3-3-3-3-3-3-3---4-4-4------4-4-4------4-4-4------4-4-4

Ending 3:26
D:8-8-8-8-8-8-8-8-10-10-10-10-10-10-10-10-13-13-13-13-13-13-13-13-8-8-8-8-6-6-6-6
A:8-8-8-8-8-8-8-8-10-10-10-10-10-10-10-10-13-13-13-13-13-13-13-13-8-8-8-8-6-6-6-6
E:6-6-6-6-6-6-6-6-8--8--8--8--8--8--8--8--11-11-11-11-11-11-11-11-6-6-6-6-4-4-4-4

this part ends a little different than the normal riff
D:8-8-8-8-8-8-8-8-10-10-10-10-10-10-10-10-13-13-13-13-13-13-13-13-13-13-13-13-13-13-13-15
A:8-8-8-8-8-8-8-8-10-10-10-10-10-10-10-10-13-13-13-13-13-13-13-13-13-13-13-13-13-13-13-15
E:6-6-6-6-6-6-6-6-8--8--8--8--8--8--8--8--11-11-11-11-11-11-11-11-11-11-11-11-11-11-11-13


this song is really easy, just power chords.
if you have any questions email relientk4life00@yahoo.com
-mike
Comments