Relient K - Chapstick Chapped Lips And Things Like Chemistry Chords & Tabs

 

Chapstick Chapped Lips And Things Like Chemistry Chords & Tabs

Relient K Chords & Tabs

Version: 3 Type: Tab 0 ratings
1 star 2 stars 3 stars 4 stars 5 stars
comments

Chapstick Chapped Lips And Things Like Chemistry Tab

   
Title: Chapstick, Chapped Lips & Things Like Chemistry
Band: Relient K
Album: Two Lefts Don't Make a Right...But Three Do
Track #: 1
tabber: corey182__

Standard Tuning

*Note* In the 2nd Verse, 
the other guitarist plays something, 
its just basic power chords that are in my tab..
i just to lazy to tab them out lol.

Key:
.. = Palm Mute
/\ = Slides

Intro/Verse:    Ending
e|-------------|------|
B|-------------|------|
G|-44444444444-|------|
D|-xxxxxxxxxxx-|-2222-|
A|-22222222222-|-2222-|
E|-------------|-0000-|
                 ....

Pre-Chorus:
e|-------------------------------|
B|-------------------------------|
G|-----------------999-9-8-4-6-4-|
D|-222-444-666-999-999-x-x-x-x-x-|
A|-222-444-666-999-777-7-6-2-4-2-|
E|-000-222-444-777---------------|

e|-----------------------------|
B|-----------------------------|
G|-----------------999-9-8-4-6-|
D|-222-444-666-999-999-x-x-x-x-|
A|-222-444-666-999-777-7-6-2-4-|
E|-000-222-444-777-------------|

Chorus
e|-------------|---------|
B|-------------|---------|
G|-44444444444-|-4-----4-|
D|-xxxxxxxxxxx-|-4-2-4-4-|
A|-22222222222-|-2-2-4-2-|
E|-------------|---0-2---|

Verse:          Ending
e|-------------|------|
B|-------------|------|
G|-44444444444-|------|
D|-xxxxxxxxxxx-|-2222-|
A|-22222222222-|-2222-|
E|-------------|-0000-|
                 ....

Pre-Chorus:
e|-------------------------------|
B|-------------------------------|
G|-----------------999-9-8-4-6-4-|
D|-222-444-666-999-999-x-x-x-x-x-|
A|-222-444-666-999-777-7-6-2-4-2-|
E|-000-222-444-777---------------|
[ Tab from: http://www.guitartabs.cc/tabs/r/relient_k/chapstick_chapped_lips_and_things_like_chemistry_tab_ver_3.html ]
e|-----------------------------|
B|-----------------------------|
G|-----------------999-9-8-4-6-|
D|-222-444-666-999-999-x-x-x-x-|
A|-222-444-666-999-777-7-6-2-4-|
E|-000-222-444-777-------------|

Chorus
e|-------------|------------|
B|-------------|------------|
G|-44444444444-|-4-------44-|
D|-xxxxxxxxxxx-|-4-22-44-44-|
A|-22222222222-|-2-22-44-22-|
E|-------------|---02-22----|

Acoustic Part
e|-------------|
B|-------------|
G|-44444444444-|
D|-44444444444-|
A|-22222222222-|
E|-------------|

Ending Part 1:
e|----------|----------------|------------|
B|----------|----------------|------------|
G|----------|-44444444444444-|------------|
D|-6-4-2--4-|-xxxxxxxxxxxxxx-|-6666\5\4\2-|
A|-6-4-2--4-|-22222222222222-|-6666\5\4\2-|
E|-4-2-0--2-|----------------|-4444\3\2\0-|


Ending Part 2:
e|----------------------|
B|----------------------|
G|-------4444-4444-4444-|
D|-22222-4444-4444-4444-|
A|-22222-2222-1111-2222-|
E|-00000----------------|

Solo:
e|-------------------------------------|\
B|-17-16-14-16-14-12----12-14-16-14-12-| \
G|-------------------13----------------|  \
D|-------------------------------------|   \
A|-------------------------------------|    \
E|-------------------------------------|    / x2
                                           /
e|----------------------------------|     /
B|-17-16-14-16-14-12----12-14-16-12-|    /
G|-------------------13-------------|   /
D|----------------------------------|  /
A|----------------------------------| /
E|----------------------------------|/

During the ending part,
the solo is played at first, 
then just go into the ending part.

Comments and corrections are welcome...if u want
you can email them to me @ Dumbfrom____88@Hotmail.com
if it doesnt mention something about my tab, i will
delete it..lol..plz only comments or corrections

I think thats all of it,
if its not,
it will just be repeating a Verse or Chorus...
its all in there somewhere.
Comments