Relient K - Chap Stick Chapped Lips And Things Like Chemistry Chords & Tabs

 

Chap Stick Chapped Lips And Things Like Chemistry Chords & Tabs

Relient K Chords & Tabs

Version: 1 Type: Tab 3 ratings
1 star 2 stars 3 stars 4 stars 5 stars
comments

Chap Stick Chapped Lips And Things Like Chemistry Tab

Song:Chapstick, Chapped Lips And Things Like Chemistry
Artist: Relient K
Album: Two Lefts Don't Make A Right, But Three Do
Tunning: Standard

pm= palm muted

Intro
E------------------------------|
B------------------------------|
G---4444444444444444444444444--|
D---xxxxxxxxxxxxxxxxxxxxxxxxx--|
A---2222222222222222222222222--|
E------------------------------|


Verse
E---------------------------------------------|
B---------------------------------------------|
G---4444-4444-4444-4444-4444-4444-4444-44-44--|
D---xxxx-xxxx-xxxx-xxxx-xxxx-xxxx-xxxx-xx-xx--|
A---2222-1111-2222-2222-2222-1111-2222-22-22--|
E-------------4444-0000-----------4444-00-22--|

Pre-Chorus
E-------|
B-------|
G-------|
D--222--|
A--222--|
E--000--|
pm ...

Chorus (1st part)
E---------------------------|
B---------------------------|
G------------44-------------|x2
D---66-44-22-44-2222-22-44--|
A---66-44-22-22-2222-22-44--|
E---44-22-00----0000-00-22--|

Chorus (2nd part)                     Ending
E-----------------------------------------|
B-----------------------------------------|
G---4444-44-44-4444-44-44-----------------|
D---xxxx-xx-xx-xxxx-xx-xx--(x3)--6-22-44--|
A---2222-22-22-2222-22-22--------6-22-44--|
E--------00-22------00-22--------4-00-22--|

intro
[ Tab from: http://www.guitartabs.cc/tabs/r/relient_k/chap_stick_chapped_lips_and_things_like_chemistry_tab.html ]
verse 2
E--------------|
B--------------|
G--4--4--------| (After you do this once, you play like verse 1)
D--4--4--6--2--|
A--2--1--6--2--|
E--------4--0--|

prechorus

chorus

Bridge (Acustic Part)
E------------------------------------------|
B------------------------------------------|
G--4444-4444-----------4444-4444-----------|
D--4444-4444-6666-2222-4444-4444-6-4-2-4---|
A--2222-1111-6666-2222-2222-1111-6-4-2-4---|
E------------4444-0000-----------4-2-0-2---|

Bridge (Chapsick and Chapped Lips and thigs like...)
E---------------------------------|
B---------------------------------|
G--4444-44-44---------------------|
D--xxxx-xx-xx--(x3)--6666-6-4-2---|
A--2222-22-22--------6666-6-4-2---|
E-------00-22--------4444-4-2-0---|

Outro
E---------------------------------------------------|
B---------------------------------------------------|
G-------4444-44------4444---------------4-------4---|
D--2222-4444-44-4444-4444-44--(x7)--2---4---4---4---|
A--2222-2222-22-4444-2222-44--------2---2---4---2---|
E--0000---------2222------22--------0-------2-------|

Solo
E--12-11-9-11-9-7-4-7-9-11-9-7----12-11-9-11-9-7-4-7-9-11-7---|
B-------------------------------------------------------------|
G-------------------------------------------------------------|
D-------------------------------------------------------------|
A-------------------------------------------------------------|
E-------------------------------------------------------------|

Thaz it! 
Comments