Relient K - Be My Escape Chords & Tabs

 

Be My Escape Chords & Tabs

Relient K Chords & Tabs

Version: 1 Type: Tab 0 ratings
1 star 2 stars 3 stars 4 stars 5 stars
comments

Be My Escape Tab

   
-----------------------------------------------------------------------
			     Be My Escape - Relient k
-----------------------------------------------------------------------
Tabbed by:Urmom26
Email:Madisonjd@vcu.edu

Tuning: standard

	I just saw them live and have to make a few corrections to the intro for both guitar 
bass.  Its not quite right any where.

D= downstroke
U= upstroke

[ Tab from: http://www.guitartabs.cc/tabs/r/relient_k/be_my_escape_tab.html ]
Intro x3
    D   D    U   D   U   D   U   D   U   D   U   D   U
e|--------------------------------------------------------------------|
B|--10--10--10--10--10---9---9---9---9---9---9---9---9----------------|
G|--11--11--11--11--11--11--11--11--11--11--11--11--11----------------|
D|--11--11--11--11--11--11--11--11--11--11--11--11--11----------------|
A|--9---9---9---9---9---9---9---9---9---9---9---9---9-----------------|
E|--------------------------------------------------------------------|
     D   D   U   D   U   D   U   D   U   D   U   D
e|--------------------------------------------------------------------|
B|--10--10--10--10--10---9---9---9---9---9---9---9--------------------|
G|--11--11--11--11--11--11--11--11---9---9---9---9--------------------|
D|--11--11--11--11--11--11--11--11--11--11--11--11--------------------|
A|--9---9---9---9---9---9---9---9---9---9---9---9---------------------|
E|--------------------------------------------------------------------|

Okay the second part of the intro where the bass is all crazy
   Guitar 1 x4            Guitar 2 chopx32
e|--------------|-----------------------------------------------------|
B|-10-10--9--9--|-----------------------------------------------------|
G|-11-11-11-11--|-----------------------------------------------------|
D|-11-11-11-11--|---7-------------------------------------------------|
A|-9--9--9--9---|---9-------------------------------------------------|
E|--------------|-----------------------------------------------------|

Now for the bass part where it gets all funky, also chop every note, palm muting sounds 
too if you use a pick

G|--------------------------------------------------------------------|
D|--------5-----------------------------------------------------------|
A|------0---05055555555-00000000-77777777-----------------------------|
E|---222--------------------------------------------------------------|
Comments