Relient K - Be My Escape Chords & Tabs

 

Be My Escape Chords & Tabs

Relient K Chords & Tabs

Version: 2 Type: Bass Tab 0 ratings
1 star 2 stars 3 stars 4 stars 5 stars
comments

Be My Escape Bass Tab

   
-------------------------------------------------------------------------------
			     Be my Escape - Relient K
-------------------------------------------------------------------------------

Tabbed By : Urmom26
e-mail: madisonjd@vcu.edu

Tuning: Standard

Pretty Rockin song, nice blend of piano with conventional rock instruments. Im not 100%
on the intro part 2 its really weird and palm muted and hard to hear, but I trust that
this basis will help you and when you figure it out e-mail me and tell me. Peace out.



 Intro 
G|---------------------------------------------------------------------------|
D|---------------------------------------------------------------------------|
A|-5~-------5~---------------------------------------------------------------|
E|-----2~--------------------------------------------------------------------|
[ Tab from: http://www.guitartabs.cc/tabs/r/relient_k/be_my_escape_btab_ver_2.html ]
 Intro part 2 all palm muted 0:17
G|---------------------------------------------------------------------------|
D|---------------------------------------------------------------------------|
A|------0---999-0--77777777--00000000--44444444------------------------------|
E|---222---------------------------------------------------------------------|
 
 Verse 1 X2
G|---------------------------------------------------------------------------|
D|---------------------------------------------------------------------------|
A|--0~-2~-5~-9~-7~-0-4-5-----------------------------------------------------|
E|---------------------------------------------------------------------------|
 
 Pre-Chorus x2
G|--------------------------------|------------------------------------------|
D|--------------------------------|------------------------------------------|
A|----9999---55555--0000--77777---|--0000000-5555-7777-----------------------|
E|--------------------------------|------------------------------------------|

 Chorus x3
G|-----------------------|---------------------------------------------------|
D|-----------------------|---------------------------------------------------|
A|--0000-7777-5555-7777--|---9-7-0-5-----------------------------------------|
E|-----------------------|---------------------------------------------------|

 Verse 2 x2 
G|---------------------------------------------------------------------------|
D|---------------------------------------------------------------------------|
A|---000-000-555-555--9-7-0-4-5----------------------------------------------|
E|---------------------------------------------------------------------------|
 
 Pre chorus

 Chorus at the end play a c#

 intro thing all palm muted                after second time do this
G|---------------------------------------|-----------------------------------|
D|---------------------------------------|-----------------------------------|
A|-----0-9990-77777777-00000000-44444444-|--77777777-------------------------|
E|--222----------------------------------|-----------------------------------|
 
 Outtro Not much to it there's one part where you go like this
G|---------------------------------------------------------------------------|
D|---------------------------------------------------------------------------|
A|---9~--7~---00000000-5555-7777---------------------------------------------|
E|---------------------------------------------------------------------------|
 
 Final chorus 

 Piano finish

| /  slide up
| \  slide down
| h  hammer-on
| p  pull-off
| ~  vibrato
| +  harmonic
| x  Mute note
===============================================================================
Comments