Relative Ash - Hymen Chords & Tabs

 

Hymen Chords & Tabs

Relative Ash Chords & Tabs

Version: 1 Type: Tab 0 ratings
1 star 2 stars 3 stars 4 stars 5 stars
comments

Hymen Tab

-------------------------------------------------------
			  HYMEN  Relative Ash
-------------------------------------------------------------------------------

Tabbed by:Borto
Email:Bglassjar@aol.com
[ Tab from: http://www.guitartabs.cc/tabs/r/relative_ash/hymen_tab.html ]
Tuning:dadgbe     (NOTE) There tens above the eights.
     If you cant hold the whole chord just play the 3 low strings
e|-----------------------------------------------|
B|3333-3333-3333-6-6-666/10101010----------------|
G|2222-2222-2222-5-5-555/10101010----------------|
D|0000-0000-0000-3-3-333/8-888888---(4 times)---0|Intro/Chourse
A|0000-0000-0000-3-3-333/8-888888---------------0|
d|0000-0000-0000-3-3-333/8-888888---------------0|

e|-----------------------------------------------|
B|-----------------------------------------------|
G|--(four times)--------(four times)-------------|
D|---------------------7--5/7--5/7---------------|Verse Gtr.1
A|-5--3/5--3/5-------0-5003/5003/50-350----------|
d|0-00---00---0-530--0--00---00---0-350----------|

e|-----------------------------------------------|
B|--(four times)----------(four times)-----------|
G|-------------harm------------------------------|
D|--------------5------7--5/7--3/7---------------|Verse Gtr.2
A|-5--3/5--3/5-5-----0-5003/5003/50-350----------|
d|0-00---00---o--5---0--00---00---0-350----------|
Comments