Reindeer Section - Your Sweet Voice Chords & Tabs

 

Your Sweet Voice Chords & Tabs

Reindeer Section Chords & Tabs

Version: 1 Type: Tab 0 ratings
1 star 2 stars 3 stars 4 stars 5 stars
comments

Your Sweet Voice Tab

-------------------------------------------------------------------------------
			     Your sweet voice - The reindeer section
-----------------------------------------------------------------------------
This is Gary Lightbody from Snow Patrol's band.They are realy, totally, extremely,
awsomly gud 

Tabbed by:Sam Halliday
Email:sam_halliday99@hotmail.com

Tuning:capo on the 3rd fret!!!

  Part 1  your sweet voice
e|-------0-------------0--------------------------|
B|-------0-------------4--------------------------|
G|-------1-------------1--------------------------|
D|-------2-------------2--------------------------|
A|-------2-------------2--------------------------|
E|-------0-------------0--------------------------|
    lets me know there is a choice
e|---0-----------------0--------------------------|
B|---0-----------------4--------------------------|
G|---2-----------------2--------------------------|
D|---2-----------------2--------------------------|
A|---0-----------------0--------------------------|
E|---0-----------------0--------------------------|
etc. then
Part 2
  I cant call you a friend
e|--4--------4---------4---------------------------|
B|--5--------4---------4---------------------------|
G|--6--------4---------6---------------------------|
D|--6--------4---------7---------------------------|
A|--4--------6---------7---------------------------|
E|-----------4---------5---------------------------|

etc.another we bit thrown in there in the verse on another guitar goes sumthing like:
[ Tab from: http://www.guitartabs.cc/tabs/r/reindeer_section/your_sweet_voice_tab.html ]
e|----------------------------------------------|
B|----------------------------------------------|
G|----2--s---4---s--2--1--1---------------------|
D|----2--s---4---s--2-----2---------------------|
A|------------------------2---------------------|
E|----------------------------------------------|


| p  pull-off
| ~  vibrato
| +  harmonic
| x  Mute note

Lyrics:
Part1
"Your sweet voice,
lets me know there is a choice. 
Please me slow,
much more slowly than that.
and when we danced,
we danced one cheek to cold cheek,
a sideways glance,
I knew you were looking at him.

Part2
I can't call you a friend,
'cause when you left me here, you left me here to die.
Don't worry I won't call you again,
'cause when I take a hint,
I take it pretty hard, 
and when you broke my heart
you broke it into shards of glass.

Part1
the telephone 
yells out at me to wake, 
I won't be blamed
for someone else's mistakes, 
it's your sweet voice
sounding cheery on the line,
it breaks my heart,
as I ease up on the charm,

Part2
can I call you my friend?
'cause it's been so long since we talked, and I miss you,
don't worry I'm over you right now,
so my feelings won't get in the way of it,
Oh, and I miss the way we talked about the little things."

Cheeer!well email me i guess wit any corrections!will be happy of them.please this is my
first tab so be sure to rate it and dont send it somewere else wit ur name on it.... its
the 1st time ive done something gud!lol..at least keep my name on it!good luck

===================================================================
Comments