Rehab - Sittin At A Bar Chords & Tabs

 

Sittin At A Bar Chords & Tabs

Rehab Chords & Tabs

Version: 1 Type: Chords 0 ratings
1 star 2 stars 3 stars 4 stars 5 stars
comments

Sittin At A Bar Chords

   
-------------------------------------------------------------------------------
			     Sittin at a bar - Rehab
-------------------------------------------------------------------------------
visit rehabs official page at www.rehabisfun.com

Tabbed by:wes
Email:wesm66@yahoo.com

Tuning:standard 

capo II fret
[ Tab from: http://www.guitartabs.cc/tabs/r/rehab/sittin_at_a_bar_crd.html ]
intro
e|-----------------------------------3--3--3-3-3-0---------------------------|
B|----3-3-3-3----------3-3-3-3-------0--0--0-0-0-0-------------------------- |
G|--2-4-2-4-2-/4-6-4-2-4-2-4-2----2--0--0--0-0-0-0----2-2-2-2-2-2------------|
D|0-----------------------------4----------2-0-2-0----2-2-4-2-4-2------------|
A|----------------------------------------------------0-0-0-0-0-0------------|
E|---------------------------------------------------------------------------|

verse
strum d, dmaj 7, g and a

chorus

chords:  d, dmaj 7, g, c, a


      d   dmaj7   g      c      a

    0      2      3      0      0
    3      2      3      1      2
    2      2      0      0      2
    0      0      0      2      2
    x      x      2      3      0 
    x      x      3      x      x


| /  slide up
| \  slide down
| h  hammer-on
| p  pull-off
| ~  vibrato
| +  harmonic
| x  Mute note
===============================================================================
Comments