Regurgitator - Track Chords & Tabs

 

Track Chords & Tabs

Regurgitator Chords & Tabs

Version: 1 Type: Bass Tab 0 ratings
1 star 2 stars 3 stars 4 stars 5 stars
comments

Track Bass Tab

REGURGITATOR - "Track 1" - Bass Tab

Common Time(4/4)
Drop D Tuning(DADG)

Intro:
                                     (x4)
|--------------------|--------------------|---------|---------|
|*-------------------|-1---1-1-1-/-3---1-*|---------|---------|
|*-5---5-5-5---3---5-|-------------------*|-.-------|---------|
|--------------------|--------------------|-0-r-r-r-|-r-r-r-r-|

                                              (x4)
|---------|-----------|---------------|------------|
|---------|-----------|*--------------|-----------*|
|---------|-----------|*-.----.-----.-|-----.---.-*|
|-r-r-r-r-|-r-r-r-12\-|--0---10--6/12-|-----9-0-5--|
  

Verse 1 & 2:
                                  (x4)
|---------------------|----------------|---------------|
|*--------------------|---------------*|*--------------|
|*--------------------|---------------*|*-.----.-----.-|
|--0-0-0-0-10-10-10-0-|-6-6-6-6-9-9-5--|--0---10--6/12-|

        (x4)
|------------|---------|
|-----------*|-.-------|
|-----.---.-*|-5-r-r-r-|
|-----9-0-5--|---------|
[ Tab from: http://www.guitartabs.cc/tabs/r/regurgitator/track_btab.html ]
 1st Chorus:
                              (x4)
|------------------|---------------|
|*-----------------|--------------*|
|*---------3-3-3-3-|---------1-1--*|
|--0-0-0-0---------|-1-1-1-1----4--|
   
Pre-Verse 2:
|---------|---------|---------------|------------|
|---------|---------|*--------------|-----------*|
|-.-------|---------|*-.----.-----.-|-----.---.-*|
|-0-r-r-r-|-r-r-r-r-|--0---10--6/12-|-----9-0-5--|


2nd Chorus:
                               (x8)
|------------------|---------------|
|*-----------------|--------------*|
|*---------3-3-3-3-|---------1-1--*|
|--0-0-0-0---------|-1-1-1-1----4--|
   
 
Pre-End:
                           (x4)
|------------------|------------|
|*-----------------|-----------*|
|*-----------------|-2-2-r-5-5-*|
|--3-3-3-3-r-6-6-r-|------------|

End:
                                 (x4)
|------------------|------------------|---------|
|*-----------------|-----------------*|---------|
|*-----------------|-2-2-2-2-5-5-5-5-*|-------.-|
|--3-3-3-3-6-6-6-6-|------------------|-r-r-r-3-|
   
By: Johari Taylor
E-mail: viking@powerup.com.au
Comments